>
 >
Rose

Rose Guitar Tabs

A Perfect  Circle - Rose chords, tabs, tablatures, lyrics

Guitar lessons | Add/correct | Request | Top 50 tabs Artists:  A B C D E F G H I J K L M N O P Q R S T U V W X Y Z 0-9

Rose Guitar Tabs – A Perfect Circle

CD, Sheet music, Poster

Do you like Rose? Share with your friends now
Bass TabsBass Tabs v2Bass Tabs v3TabsTabs v2Tabs v3
tuning: down one and one half steps (low to high: C# F# B E G# C#)

Intro
|--------------------------------------------------------|
|------7------------7------------7---------7-------------|
|---------9-9----------9-9---------9-9---9---------9-----|
|------------------------------------------------7-------|
|--9-9---------9-9----------9-9--------9-----------------|
|---------------------------------------------10---------|

0:18
|----------------------|
|----------------------|
|--16--16--16--17------|
|----------------------|
|----------------------|
|----------------------|

|------------------------------------------------
|--------5---------5---------5--------5----------
|------7---------7---------7--------7---7--------
|----7---------7---------7--------7------7-------
|--5---------5---------5--------5---------5------
|------------------------------------------------

|-------------------------------------------------------------|
|-------7---------7---------7----------7---------7------------|
|---------9-9-------9-9-------9-9--------9-9---9--------9-----|
|-----------------------------------------------------7-------|
|--9-9--------9-9-------9-9--------9-9-------9----------------|
|--------------------------------------------------10---------|

|-------------------|
|-------------------|
|--16--16--16--17---|
|-------------------|
|-------------------|
|-------------------|

|---------------------------------------------------------|
|--------5--------5--------5--------5--------5------------|
|------7--------7--------7--------7--------7---7----------|
|----7--------7--------7--------7--------7-------7--------|
|--5--------5--------5--------5--------5-----------5------|
|---------------------------------------------------------|

|--------------------------------------
|--14-14-14--15/17--15-14-15-14-12-12--
|--------------------------------------
|--------------------------------------
|--------------------------------------
|--------------------------------------

|--------------------------------------------------------------
|--14-14-14--15/17--15-14-15-14-12-12--19-17-19-17-19-17-------
|--------------------------------------------------------------
|--------------------------------------------------------------
|--------------------------------------------------------------
|--------------------------------------------------------------

|--------------------------------|
|--19/20--19\17--17\15--14-------|
|--------------------------------|
|--------------------------------|
|--------------------------------|
|--------------------------------|

|----------------------------------------------|
|----------------------------------------------|
|-----11--14-----11--16----11--14----11--7-----|
|-----11--14-----11--16----11--14----11--7-----|
|------9--12------9--14-----9--12-----9--5-----|
|--0-0--------0-0-------0-0-------0-0----------|

|-----------|---------------|-----------|---------------|
|-----------|---------------|-----------|---------------|
|-----------|---------------|-----------|---------------|
|-----------|---------------|-----------|---------------|
|--9-9-9-9--|--12-12-12-12--|--7-7-7-7--|--14-14-14-14--|
|-----------|---------------|-----------|---------------|

|-----------|---------------|-----------|-----------|
|-----------|---------------|-----------|-----------|
|-----------|---------------|-----------|-----------|
|-----------|---------------|-----------|-----------|
|--9-9-9-9--|--12-12-12-12--|--9-9-9-9--|--5-5-5-5--|
|-----------|---------------|-----------|-----------|

|-------------|---------------------|---------------|
|-------------|---------------------|---------------|
|-------------|---------------------|---------------|
|-------------|---------------------|---------------|
|--9-9-9-9-9--|--12-12-12-12-12-12--|--9-9-9-9-9-9--|
|-------------|---------------------|---------------|

|---------------------|-------------|---------------------|
|---------------------|-------------|---------------------|
|---------------------|-------------|---------------------|
|---------------------|-------------|---------------------|
|--14-14-14-14-14-14--|--9-9-9-9-9--|--12-12-12-12-12-12--|
|---------------------|-------------|---------------------|

|--------------------|
|--------------------|
|--------------------|
|--------------------|
|--9-9-9-9--5-5-5-5--|
|--------------------|

|---------------|
|---------------|
|--16-16-16-17--|
|---------------|
|---------------|
|---------------|

|---------------------------------------------|
|--------5--------5--------5--------5---------|
|------7--------7--------7--------7---7-------|
|----7--------7--------7--------7------7------|
|--5--------5--------5--------5---------5-----|
|---------------------------------------------|

|-------------------------------------------------|
|-------------------------------------------------|
|------11--14-----11--16-----11--14-----11--7-----|
|------11--14-----11--16-----11--14-----11--7-----|
|-------9--12------9--14------9--12------9--5-----|
|--0-0--------0-0--------0-0---------0-0----------|





Comments


Popular A Perfect Circle tabs & chords
Brena Bass Tabs
Vanishing Chords
A Stranger (Intro) Tabs
Judith 5 Tabs
Judith 9 Tabs
Magdalena Tabs
Sleeping Beauty 2 Tabs
The Hollow 2 Tabs
Wake The Dead Tabs
Whats So Funny Bout Tabs


Song lyrics



↑ Back to top | Tablatures and chords are parodies/interpretations of the original songs. You may use it for private study, scholarship, research or language learning purposes only
© 2014 AZChords.com Contact us | Privacy policy | DMCA | Add/correct tabs | Request tabs | Top 50 tabs