» » »

A Perfect Circle, Renholder Tabs (ver.3)

Artists:  A B C D E F G H I J K L M N O P Q R S T U V W X Y Z # 

Renholder Tabs (ver.3)

A Perfect Circle Tabs
 Rating:
4/5 (4 votes)
Renholder lessons Tabs too difficult? Try these video lessons and learn fast
                tuning: down one and one half step (low to high: C# F# B E G# C#)

 |-------6-------------6------------|
 |-----8---8-7-------8---7-8-7---8--|
 |-------------5--------------------|
 |-----------------------------8----|
 |--8-------------8-----------------|
 |----------------------------------|

|-------6-------------6------------|
 |-----8---8-7-------8---7-8-7---8--|
 |-------------5--------------------|
 |-----------------------------8----|
 |--8-------------8-----------------|
 |----------------------------------|
and repeat
            
Submit corrections

comments powered by Disqus
↑ Back to top | A Perfect Circle Tabs for Renholder. Lyrics for acoustic guitar and electric guitar. Tablatures and chords are parodies/interpretations of the original songs. You may use it for private study, scholarship, research or language learning purposes only