>
 >
Magdalena 2

Magdalena 2 Guitar Tabs

A Perfect  Circle - Magdalena 2 chords, tabs, tablatures, lyrics

Guitar lessons | Add/correct | Request | Top 50 tabs Artists:  A B C D E F G H I J K L M N O P Q R S T U V W X Y Z 0-9

Magdalena 2 Guitar Tabs – A Perfect Circle

CD, Sheet music, Poster

Do you like Magdalena 2? Share with your friends now
Bass TabsTabsTabs v2Tabs v3
Intro
|----------|---|-------------|---|-----------|---|-------------|---|
|----------|---|-------------|---|-----------|---|-------------|---|
|----------|---|-------------|---|---6-------|---|-------------|---|
|----6-5-6-|---|5/-8-6-5-6-3-|-6-|-----6-5-6-|---|-5/8-6-5-6---|---|
|-4--------|---|-------------|---|-4---------|---|-----------4-|---|
|----------|---|-------------|---|-----------|---|-------------|---|

|-13-|----|-------------------------|-----|-13-|----|----------|------|
|----|-14-|-------------------------|-----|----|-14-|----------|------|
|----|----|-11/13\11/13/15\13/15\13-|-----|----|----|----------|------|
|----|----|-------------------------|-11--|----|----|---6-5-6--|-/11--|
|----|----|-------------------------|-----|----|----|-4--------|------|
|----|----|-------------------------|-----|----|----|----------|------|

Verse 1
|-----|--------------|--------------|-----|-----|-----|-----|-----|
|-----|--------------|--------------|-----|-----|-----|-----|-----|
|-6---|---6-6-----6--|---6-6-----6--|-----|-6---|-----|-----|-----|
|-6---|-------6-6----|-------6-6----|-2---|-6---|-----|-----|-2---|
|-4---|--------------|--------------|-2---|-4---|-----|-----|-2---|
|-----|--------------|--------------|-0---|-----|-----|-----|-0---|

--------rest 8 measures for bass


Chorus
2 guitars - for 1 guitar just play lead riff
|-------|-------|------|------|-------|-------|------|------|
|-------|-------|------|------|-------|-------|-14---|-(14)-|
|-13-12-|-15----|------|------|-13-12-|-15----|------|------|
|-------|-------|-13---|-11---|-------|-------|------|------|
|-------|-------|------|------|-------|-------|------|------|
|-------|-------|------|------|-------|-------|------|------|
|
| use 8th note strumming
|-------|-------|------|------|-------|-------|------|------|
|-------|-------|------|------|-------|-------|------|------|
|-13----|-15----|-8----|-6----|-13----|-15----|-8----|-6----|
|-------|-------|------|------|-------|-------|------|------|
|-11----|-13----|-6----|-4----|-11----|-13----|-6----|-4----|
|-------|-------|------|------|-------|-------|------|------|



Verse 2
|--------|---------|--------|--------|
|--------|---------|--------|--------|
|-6------|---------|--------|--------|  let chord ring
|-6------|---------|--------|--------|      and decay
|-4------|---------|--------|--------|
|--------|---------|--------|--------|

--------rest 4 measures for bass


Repeat Chorus

Fill 1
|-11-------|-11----------14^F-----|
|-16-------|-16--14---------------|
|----------|---------15-----------| play 4
|----------|----------------------| times
|----------|----------------------|
|----------|----------------------|

Solo 
Play lead over Outro (x8)
|-(16)--r--|-13-------|-------------------------|----------|
|----------|----------|-------------------------|----------|
|----------|----------|-11/13\11/13/15\13/15\13-|----------|
|----------|----------|-------------------------|-11-------|
|----------|----------|-------------------------|----------|
|----------|----------|-------------------------|----------|

|-13-^.5r--|----------|-------------------------|----------|
|----------|-14-------|-------------------------|----------|
|----------|----------|-11/13\11/13/15\13/15\13-|----------|
|----------|----------|-------------------------|-11-------|
|----------|----------|-------------------------|----------|
|----------|----------|-------------------------|----------|

|------------------------------|--------------------------|
|------------------------------|--------------------------|
|-----------11-----11-13^.5r~~-|-------------11--13^.5r~~-| play 4 
|-13--11-13-----13-------------|-13--11--13---------------| times
|------------------------------|--------------------------|
|------------------------------|--------------------------|

Outro
|-------|-------|--------|--------|
|-------|-------|--------|--------|
|-------|-------|-6------|-6------| play 4
|-2-----|-4-----|-6------|-6------| times
|-2-----|-4-----|-4------|-4------|
|-0-----|-2-----|--------|--------|

--------rest 16 measures for bass

Repeat Outro x 4





Comments


Popular A Perfect Circle tabs & chords
Crimes Bass Tabs
Passive Bass Tabs
Blue Tabs
Orestes (Solo) Tabs
Pet 2 Tabs
Sleeping Beauty 2 Tabs
The Outsider 2 Tabs
Three Libras 3 Tabs
Three Libras Intro Tabs
Blue Ukulele


Song lyrics



↑ Back to top | Tablatures and chords are parodies/interpretations of the original songs. You may use it for private study, scholarship, research or language learning purposes only
© 2014 AZChords.com Contact us | Privacy policy | DMCA | Add/correct tabs | Request tabs | Top 50 tabs