» » »

Brena Tabs (ver.2)

Artists:  A B C D E F G H I J K L M N O P Q R S T U V W X Y Z # 

Brena Tabs (ver.2)

A Perfect Circle
Rating:
0/5 (0 votes)

Hard to play? Try these video lessons and learn fast.
                A Perfect Circle - Brena
Tune ALL strings down 3 half steps from standard

Intro: (clean electric)
|---------------------------------------------------------------------|
|---------------------------------------------------------------------|
|------4----5\4--4------4------------------------4------4---4---------|
|----2---2--2------2------2- repeat -------4/6-6---6--2---2---2-------|
|--4--------4---------4-----------------0--0----------0---------------|
|---------------------------------------------------------------------|

|---------------------------------------------------------------------|
|---------------------------------------------------------------------|
|--------4---4--------------------------------------------------------|
|--4/6-6---6-6- repeat whole intro -----------------------------------|
|--0---------0--------------------------------------------------------|
|---------------------------------------------------------------------|

Verse: (clean electric)
|-----------0------------------------0-----------------------0--------|
|---------0-----------0------------0----------0------------0----------|
|-------6-----------6------------6----------6------------9------------|
|-----6------------------------6-----------------------9--------------|
|---4------------------------4-----------------------0----------------|
|---------------------------------------------------------------------|

Chorus: (distortion electric, great chorus!)
|---------------------------------------------------------------------|
|---------------------------------------------------------------------|
|--6-6-/-9-9-\-6-6-/-11-11----9--6----6-/-9-\-6-/-11-\-4-/-6----------|
|--6-6-/-9-9-\-6-6-/-11-11----9--6----x-/-x-\-x-/-x--\-x-/-x----------|
|--4-4-/-7-7-\-4-4-/-9--9---0-0--0----4-/-7-\-4-/-9--\-2-/-4----------|
|---------------------------------------------------------------------|
                                (--- play this twice --)

|-----------------------------5----4----------------------------------|
|-----------------------------5----4----------------------------------|
|-13-13-\-9-9-/-11-11---2--4--7----6----------------------------------|
|-13-13-\-9-9-/-11-11---2--4--7----6----------------------------------|
|-11-11-\-7-7-/-9--9----0--2--5----4----------------------------------|
|---------------------------------------------------------------------|

Verse Electric: (this is played about 4 times)
|---------------------------------------------------------------------|
|---------------------------------------------------------------------|
|--6--/--8--/--9--/--11--/--13----------------------------------------|
|--x--/--x--/--x--/--x---/--x-----------------------------------------|
|--4--/--6--/--7--/--9---/--11----------------------------------------|
|---------------------------------------------------------------------|

Right Before Solo:
|---------------------------------------------------------------------|
|---------------------------------------------------------------------|
|--6----------6-/-9-\-8---4--6---------6------6-/-9--8---4--2---------|
|--6----------6-/-9-\-8---4--6---------6------6-/-9--8---4--2---------|
|--4----------4-/-7-\-6---2--4---------4------4-/-7--6---2--0---------|
|---------------------------------------------------------------------|

Solo:
|--12--11--------------------------------------------11-10-9----------|
|-----------9~--------------10-9--10-9-----------------------12-10-9--|
|-----------------9-11-9-x---------------11-9----8--------------------|
|---------------------------------------------11----------------------|
|---------------------------------------------------------------------|
|---------------------------------------------------------------------|

|---------------------------------------------------------------------|
|-10-9----------------------------------------------------------------|
|------11-9-11^13-11-9-------------8-8h9p8----------------------------|
|----------------------11-----9-11----------11-9-11-9-11~-------------|
|-------------------------/11-----------------------------------------|
|---------------------------------------------------------------------|

|---------------------------------------------------------------------|
|---------------------------------------------------------------------|
|------9p8---------11p8---------------9p8-----------------------------|
|-11-------9-9/11-------9-9/11---11-------9-9-------------------------|
|-------------------------------------------------9-11--11^12^11------|
|---------------------------------------------------------------------|
            
Hard to play? Try these video lessons and learn fast. | Correct




comments powered by Disqus
↑ Back to top | Tablatures and chords are parodies/interpretations of the original songs. You may use it for private study, scholarship, research or language learning purposes only