» » »

A Perfect Circle, 3 Libras Tabs (ver.2)

Artists:  A B C D E F G H I J K L M N O P Q R S T U V W X Y Z # 

3 Libras Tabs (ver.2)

A Perfect Circle Tabs
 Rating:
4/5 (4 votes)
3 Libras lessons Tabs too difficult? Try these video lessons and learn fast
                a perfect circle
3 libras


Intro:
|-------------------------------------------------------------------
|--3-----3--3-----3--3-----3/7-----7\3-----3--3-----3/10------10\---
|----0--------0--------0-------0-------0--------0--------0----------
|-------------------------------------------------------------------
|--3---3----3---3----3---3--/7---7--\3---3----3---3--/10---10--\----
|-------------------------------------------------------------------

|------------------------------------------------------------
|--7-----7\3-----3--3-----3--3-----3/7-----7\3-----3--3-----3/
|----0-------0--------0--------0-------0-------0--------0----
|------------------------------------------------------------
|--7---7--\3---3----3---3----3---3--/7---7--\3---3----3---3--/
|------------------------------------------------------------

|------------------------------------------------0-----|
|--10------10\7-----7/8-----8--8-----8--8-----8--8-----|
|-----0---------0-------0--------0--------0------0-----|
|------------------------------------------------0-----|
|--10---10---\7---7--/8---8----8---8----8---8----8-----|
|------------------------------------------------------|

Verse:                                    end of 4th time
|----------------------------------------|-----------|
|--3-----3--3-----3--5-----5--6-----6----|--7-----7--|
|----0---------0-------0--------0--------|----0------|
|----------------------------------------|-----------|
|--3---3-------------5---5---------------|--7---7----|
|-----------3---3-------------6---6------|-----------|

|-----------------------------------------------------------------
|--3-----3--3-----3--3-----3/10-----10\7-----7--7-----7--7-----7--
|----0--------0--------0--------0--------0--------0--------0------
|-----------------------------------------------------------------
|--3---3----3---3----3---3--/10---10--\7----7---7---7----7---7----
|-----------------------------------------------------------------

|----------------------------------------------------------------
|--7-----7\3-----3--3-----3--3-----3/10-----10\7-----7--7-----7--
|----0-------0--------0--------0--------0--------0--------0------
|----------------------------------------------------------------
|--7---7--\3---3----3---3----3---3--/10---10--\7---7----7---7----
|----------------------------------------------------------------

|-----------0--|
|--8-----8--8--|
|----0------0--|
|-----------0--|
|--8---8----8--|
|--------------|

Chorus:
|----------------------------------------|
|----------------------6-6-6-6-----------|
|----------------------5-5-5-5-----------|
|--5--5-5-5--5--5-5-5--3-3-3-3--6-6-6-6--|
|--5--5-5-5--5--5-5-5--3-3-3-3--6-6-6-6--|
|--3--3-3-3--3--3-3-3-----------4-4-4-4--|

|----------------------------------------------------------------
|--3-----3--3-----3--3-----3/7-----7\3-----3--3-----3/10------10
|----0--------0--------0-------0-------0--------0--------0-------
|----------------------------------------------------------------
|--3---3----3---3----3---3--/7---7--\3---3----3---3--/10---10---
|----------------------------------------------------------------

|------------------------------------------------------------
|--7-----7\3-----3--3-----3--3-----3/7-----7\3-----3--3-----3/
|----0-------0--------0--------0-------0-------0--------0----
|------------------------------------------------------------
|--7---7--\3---3----3---3----3---3--/7---7--\3---3----3---3--/
|------------------------------------------------------------

|--------------------------------------------------|
|--10------10\7-----7/8-----8--8-----8--8-----8----|
|-----0---------0-------0--------0--------0--------|
|--------------------------------------------------|
|--10---10---\7---7--/8---8----8---8----8---8------|
|--------------------------------------------------|

|-----------------------------------------------------------------
|-----------------------------------------------------------------
|--9-9-9-9\7-7-7-7-7-7-7-7-7-7-7-7-7/9-9-9-9-9-9-9-9-9-9-9-9-9---
|--9-9-9-9\7-7-7-7-7-7-7-7-7-7-7-7-7/9-9-9-9-9-9-9-9-9-9-9-9-9---
|--7-7-7-7\5-5-5-5-5-5-5-5-5-5-5-5-5/7-7-7-7-7-7-7-7-7-7-7-7-7---
|-----------------------------------------------------------------

|-------------------------------------------------------|
|-------------------------------------------------------|
|--7-7-7-7-7-7-7-7-7-7-7-7-7/9-9-9-9-9-9-9-9-9-9-9-9-9--|
|--7-7-7-7-7-7-7-7-7-7-7-7-7/9-9-9-9-9-9-9-9-9-9-9-9-9--|
|--5-5-5-5-5-5-5-5-5-5-5-5-5/7-7-7-7-7-7-7-7-7-7-7-7-7--|
|-------------------------------------------------------|

Outro:
|-----------------------------------------|
|-----------------------------------------|
|-9--7--9--7--9--11--16--19--11--9--7--12-|
|-----------------------------------------|
|-7--5--7--5--7---9--14--17---9--7--5--10-| 
|-----------------------------------------|
            
Submit corrections

comments powered by Disqus
↑ Back to top | A Perfect Circle Tabs for 3 Libras. Lyrics for acoustic guitar and electric guitar. Tablatures and chords are parodies/interpretations of the original songs. You may use it for private study, scholarship, research or language learning purposes only