» » »

A Perfect Circle, 3 Libras Bass tabs (ver.2)

Artists:  A B C D E F G H I J K L M N O P Q R S T U V W X Y Z # 

3 Libras Bass tabs (ver.2)

A Perfect Circle Tabs
 Rating:
4/5 (4 votes)
3 Libras lessons Tabs too difficult? Try these video lessons and learn fast
                -------------------------------------------------------------------------------
			     3 LIBRAS - A Perfect Circle
-------------------------------------------------------------------------------

Ok this is the way my older brother taught me how to play it and it sounds perfect, so I 
all credit to my brother.

Tuning: EADG

Ah Now this is the full correct tab
(Intro)
G|--------------------------------------------------------------------------------|
D|--------------------------------------------------------------------------------|
A|-0-0-0-0-0-0-4-4-0-0-0-0-7-7-4-4-0-0-0-0-0-0-4-4-0-0-0-0-7-7-4-4--5-5-5-5-5-5-5-|
E|--------------------------------------------------------------------------------|
( Maynard starts to sing)
G|--------------------------------------------------------------------------------|
D|--------------------------------------------------------------------------------|
A|--------------2---------------2---------------2------------2--------------------|
E|------4---0-------3---4---0------3----4---0------3---4--0-----3---4-------------|
(Bridge, Difficult not to be...)
G|--------------------------------------------------------------------------------|
D|--------------------------------------------------------------------------------|
A|-----0----0----0----0-----4----4---4---4-----0---0---0--0----4---4--5--5--------|
E|-------------------------------------------------------------------------0------|
(verse,But I threw you the obvious....)
G|--------------------------------------------------------------------------------|
D|--------------------------------------------------------------------------------|
A|--------------2---------------2---------------2------------2--------------------|
E|------4---0-------3---4---0------3----4---0------3---4--0-----3---4-------------|
(Bridge, Here I am expecting...)
G|--------------------------------------------------------------------------------|
D|--------------------------------------------------------------------------------|
A|-----0----0----0----0-----4----4---4---4-----0---0---0--0----4---4--5--5--------|
E|-------------------------------------------------------------------------0------|
(Very loud part that kicks in at 2:01)
G|------------------------------------------------------------------|
D|------------------------------------------------------------------|
A|------------3--------------3--------------3------------3----------|
E|-----0--0------1---0---0-------1---0--0------1--0---0-----1-------|
(Intro part again)
G|--------------------------------------------------------------------------------|
D|--------------------------------------------------------------------------------|
A|-0-0-0-0-0-0-4-4-0-0-0-0-7-7-4-4-0-0-0-0-0-0-4-4-0-0-0-0-7-7-4-4--5-5-5-5-5-5-5-|
E|--------------------------------------------------------------------------------|
(Then play this)
G|--------------------------------------------------------------------------------|
D|--------------------------------------------------------------------------------|
A|--------2--2---2---2h4-4-2h4--6---6---6---6---2---2--2-2h4-4-2h4--6-------------|
E|--------------------------------------------------------------------------------|

G|--------------------------------------------------------------------------------|
D|--------------------------------------------------------------------------------|
A|--6----6---6----2---2---2--2h4-4--4---5-----------------------------------------|
E|--------------------------------------------------------------------------------|


| /  slide up
| \  slide down
| h  hammer-on
| p  pull-off
| ~  vibrato
| +  harmonic
| x  Mute note
===============================================================================
            
Submit corrections

comments powered by Disqus
↑ Back to top | A Perfect Circle Bass for 3 Libras. Lyrics for acoustic guitar and electric guitar. Tablatures and chords are parodies/interpretations of the original songs. You may use it for private study, scholarship, research or language learning purposes only