>
 >
The Rock Song

The Rock Song Guitar Tabs

Apace - The Rock Song chords, tabs, tablatures, lyrics

Guitar lessons | Add/correct | Request | Top 50 tabs Artists:  A B C D E F G H I J K L M N O P Q R S T U V W X Y Z 0-9

The Rock Song Guitar Tabs – Apace

CD, Sheet music, Poster

Do you like The Rock Song? Share with your friends now
Tabs
I know this is a *** easy song, but its nice to play.
Standard tuning

E------------------------------------------------------------------------------
B------------------------------------------------------------------------------
G------------------------------------------------------------------------------  (Muted)
D------5------5--------5----------8-------5--------5--------5----------8---
A------5------5--------5----------8-------5--------5--------5----------8---
E-3-3---3-3-3---3-3-3---3-6-6---6--3-3---3-3-3---3-3-3---3-6-6----6       X3

E-------------------------------------------------------------------------------
B-------------------------------------------------------------------------------
G-------------------------------------------------------------------------------
D----10-------10--------8--------8--------5--------5------------------------
A----10-------10--------8--------8--------5--------5------------------------
E-8-8---8-8-8----8-6-6---6-6-6---6-3-3---3-3-3--------------------------


Refrain:
( not muted)
E------------------------------------------------------------------------------------------------
B------------------------------------------------------------------------------------------------
G------------------------------------------------------------------------------------------------
D-5-5-5-5-5-5-5-5-10-10-10-10-10-10-10-10--3-3-3-3-3-3-3-4-5-5-5-5-5-5-5-5-5-
A-5-5-5-5-5-5-5-5-10-10-10-10-10-10-10-10--3-3-3-3-3-3-3-4-5-5-5-5-5-5-5-5-5-
E-3-3-3-3-3-3-3-3--8---8𨃌--88---8--8-1-1-1-1-1-1-1-2-3-3-3-3-3-3-3-3-3-

E--------------------------------------------------------------------------------------------------
B--------------------------------------------------------------------------------------------------
G---3-5----3-5----3-5----3-5----3-5----3-5----3-5----3-5----3-5----3-5----3-5----3-5---
D-5-------5------5-------5------5-------5-------5-----5-------5-------5------5--------5------
A--------------------------------------------------------------------------------------------------
E---------------------------------------------------------------------------------------------------

e-1-2-3-4-5-6-7-----------------------------------------------2-----------20------
b-------------6-7-6-7-6-7-6-7-6-7-6-7-5-6-6-7-7-8-----------------6-7----3--3-7---
g------------------------------------------------7-8-9-8-9-8-----4-5-6--4----2-8--
d------------------------------------------------------------1-2-1-3-4-6------1--5
a---------------------------------------------------------------------------------
e---------------------------------------------------------------------------------

e-9-8-7-6-5-4-3-2-1-2-1-2-3-2-3-4-3-4-5-4-5-6-5-7--7-8-7-8-9-8-9-0-9-0-9-0-9-0-9-0
b---------------------------------7-8----------7----8----5--4---3--2--3--4--7--6--
g-----------4------8-9--------------8--9-8---9--8---8--------------------8--------
d-11-------let it ring---and--pick--it--hard--------------------------------------
a---------------------------------------------------------------------------------
e---------------------------------------------------------------------------------

e---------------------------------4-7-4-7-4-7-4-7--------------------------------
b-----------------8-7-8-7-8-7-8-7-5---5---5---5--5-5-5-5-5-4-3-4-5-4-3-4-5-4-3-4-
g-6-7-6-7-6-7-6-7-----------------------------------------------------------------
d---------------------------------------------------------------------------------
a---------------------------------------------------------------------------------
e--------------------------------------------------------------------------------

e-1-2-3-4-5-6-7-8-9-------------------------------------------------------------
b-------------------1-2-3-4-5-6-7-8-9-------------------------------------------
g--------------------------------------1-2-3-4-5-6-7-8-9------------------------
d--------------------------------------------------------1-2-3-4-5-6-7-8-9------
a---------------------5--let--it--ring------------------------------------------
e-------------------------------------------------------------------------------

e-12-12-12-12-12-12-12-12-12-12-12-12-12-12-12-12-12-12-12-12-12-12-12-12-12-12-
b-12-12-12-12-12-12-12-12-12-12-12-12-12-12-12-12-12-12-12-12-12-12-12-12-12-12-
g-13-13-13-13-13-13-13-13-13-13-13-13-13-13-13-13-13-13-13-13-13-13-13-13-13-13-
d-------------------------------------------------------------------------------
a-------------------------------------------------------------------------------
e-1---let-----it----ring----and--pick---it--verry---verry----hard!!!------------

e-12-0-12-0-12-0-12-0-12-0-12-0-12-------3-4-5-6-5-6-7-6-7-8-7-8-9-8-9-8-9-8----
b--------9-8-7-8----------------------------------------------------------------
g----------------------------------7-9-0----------------------------------------
d-------------------------------------------------------------------------------
a-------------------------------------------------------------------------------
e-------------------------------------------------------------------------------

e-0-0-0-0-0---------------------------------------------------------0-0-0-0-0-0-
b-------------0-0-0-0-00---------------------------------0-0-0-00---------------
g------------------------0-0-0-0-0----------------0-0---------------------------
d---------------------------------0-0-0-0-0-0-0-0-------------------------------
a-------------------------------------------------------------------------------
e-------------------------------------------------------------------------------

e-12-11-10-9-8-7-6-5-4--3-2-1-2-3-2-1-2-3-4-5-4-3-4-5-6-7-8-7-6-5-4-3-4-3-2-1-0
b-13-12-11-10-9-8-7-6-5-4-3-2-12-1-2-3-4-5-4-5-4-5-6-6-5-4-5-6-7-6-7-6-5--2-1-0
g------------------------------------------------------------------------------
d------------------------------------------------------------------------------
a------------------------------------------------------------------------------
e------------------------------------------------------------------------------





Comments


Popular Apace tabs & chords
Decisions Tabs
Decisions 1 Tabs
Hate Love Tabs
I'd Like Some Cocaine Tabs
The B Song Tabs


Song lyrics



↑ Back to top | Tablatures and chords are parodies/interpretations of the original songs. You may use it for private study, scholarship, research or language learning purposes only
© 2014 AZChords.com Contact us | Privacy policy | DMCA | Add/correct tabs | Request tabs | Top 50 tabs