>
 >
The B Song

The B Song Guitar Tabs

Apace - The B Song chords, tabs, tablatures, lyrics

Guitar lessons | Add/correct | Request | Top 50 tabs Artists:  A B C D E F G H I J K L M N O P Q R S T U V W X Y Z 0-9

The B Song Guitar Tabs – Apace

CD, Sheet music, Poster

Do you like The B Song? Share with your friends now
Tabs
This is a weird tuning, i know, but it is cool

B-0------------------------------------------------
B-0------------------------------------------------
B-0-----let them al ring------------------------
B-0------------------------------------------------
B-0------------------------------------------------
B-0------------------------------------------------

B------------------------------------------------------------
B--------------------------------------------------------------
B--------------------------------------------------------------
B-------------------------------------------------------------
B--------------------------------------------------------------
B-0-3-5-6-5-3-0-3-5-6-5-3-0-3-5-6-5-3-0-3-5-6-5-3-0

You need big fingers for this:

B-0-3-5-6-5-3-0-3-5-6-5-3-0-3-5-6-5-3-0-3-5-6-5-3-0
B-0-3-5-6-5-3-0-3-5-6-5-3-0-3-5-6-5-3-0-3-5-6-5-3-0
B-0-3-5-6-5-3-0-3-5-6-5-3-0-3-5-6-5-3-0-3-5-6-5-3-0 X8
B-0-3-5-6-5-3-0-3-5-6-5-3-0-3-5-6-5-3-0-3-5-6-5-3-0
B-0-3-5-6-5-3-0-3-5-6-5-3-0-3-5-6-5-3-0-3-5-6-5-3-0
B-0-3-5-6-5-3-0-3-5-6-5-3-0-3-5-6-5-3-0-3-5-6-5-3-0

B---------------------------------------------------------------------------
B---------------------------------------------------------------------------
B---------------------------------------------------------------------------				
B---------------------------------------------------------------------------
B---------------------------------------------------------------------------
B-0-3-5-6--10-12-0-3-5-6--10-12-0-3-5-6--10-12-0-3-5-6--10-12

B-0-3-5-6--10-12-0-3-5-6--10-12-0-3-5-6--10-12-0-3-5-6--10-12
B-0-3-5-6--10-12-0-3-5-6--10-12-0-3-5-6--10-12-0-3-5-6--10-12
B-0-3-5-6--10-12-0-3-5-6--10-12-0-3-5-6--10-12-0-3-5-6--10-12 X4
B-0-3-5-6--10-12-0-3-5-6--10-12-0-3-5-6--10-12-0-3-5-6--10-12
B-0-3-5-6--10-12-0-3-5-6--10-12-0-3-5-6--10-12-0-3-5-6--10-12
B-0-3-5-6--10-12-0-3-5-6--10-12-0-3-5-6--10-12-0-3-5-6--10-12

Solo: just keep repeating the first riff and the other guitar plays this:

B-----------------------------------------------------------------------------------------
B------------------------------------------------------------------------------------------
B-0-12-14-15-14-12-0-12-14-15-17-15-0-12-14-15-17-19-0-12-14-15-17-19
B------------------------------------------------------------------------------------------
B-------------------------------------------------------------------------------------------
B-------------------------------------------------------------------------------------------

Tremolo pick really fast:



B---------------------------------13-----13-------------------------------------------------13-13-13-13-
B-----------------------------12-----12-----12-12-12-12-12-12-12-12-12-12-12-12-12-12-12-12-
B-12-12-12-12-12-12-12-12-12-12-12-12-12-12-12-12-12-12-12-12-12-12-12-12-12-12-12-
B-------------------------------------------------0-------------------------------------0-0-0-0-0-0-0-0-0
B----------------------------------------------0-------------------------------------0-0-0-0-0-0-0-0-0-0-
B-0-0-0-0-0-0-0-0-0-0-0-0-0-0-0-0-0-0-0-0-0-0-0-0-0-0-0-0-0-0-0-0-0-0-0-0-0-0-0-0-0-0-0-0

B-0--------------------------------------------0-
B0--------------------------------------0-----
B---0----------------------------------0---------
B----0---------------------------0---------------
B-----0----------------------0-------------------
B------0-----------------0------------------------





Comments


Popular Apace tabs & chords
Decisions Tabs
Decisions 1 Tabs
Hate Love Tabs
I'd Like Some Cocaine Tabs
The Rock Song Tabs


Song lyrics



↑ Back to top | Tablatures and chords are parodies/interpretations of the original songs. You may use it for private study, scholarship, research or language learning purposes only
© 2014 AZChords.com Contact us | Privacy policy | DMCA | Add/correct tabs | Request tabs | Top 50 tabs