» » »

Apace, I'd Like Some Cocaine Tabs (ver.1)

Artists:  A B C D E F G H I J K L M N O P Q R S T U V W X Y Z # 

I'd Like Some Cocaine Tabs (ver.1)

Apace Tabs
Rating:
0/5 (0 votes)
I'd Like Some Cocaine lessons Tabs too difficult? Try these video lessons and learn fast
                At the intro,every 3 lines,are 3 counts
drop d-tuning
(   / = sliding)
Intro/and couplet(the first 2 times is the intro) without distortion
e-3-3---3-3---2-2---2-2---3-3---3-3---2-2---2-2---
b-3-3---4-4---3-3---3-3---3-3---4-4---3-3---3-3---
g-3-3---3-3---2-2---2-2---3-3---3-3---2-2---2-2---
d--------------------------------------------------------- X4
a---------------------------------------------------------
d---------------------------------------------------------

e-3-3---3-3---2-2---2-2---3-3---3-3---2-2---2-2---
b-3-3---4-4---3-3---3-3---3-3---4-4---3-3---3-3---
g-3-3---3-3---2-2---2-2---3-3---3-3---2-2---2-2---
d-5-5---5-5---4-4---4-4---5-5---5-5---4-4---4-4--- X4
a-5-5---6-6---5-5---5-5---5-5---6-6---5-5---5-5---
d---------------------------------------------------------

with distortion
refrain:
e-------------------------------------------------------------
b-------------------------------------------------------------
g-------------------------------------------------------------
d-5-5-5-5-5-5-5-5-1-1-1-1-1-1-1-1-0-0-0-0-0-0-0-0-
a-5-5-5-5-5-5-5-5-1-1-1-1-1-1-1-1-0-0-0-0-0-0-0-0- X2
d-5-5-5-5-5-5-5-5-1-1-1-1-1-1-1-1-0-0-0-0-0-0-0-0-

Then this(still the refrain):

E-3-3-3-3-3-3-3-3-3-3-3-3-3-3-3-3-2-2-2-2-2-2-2-2-2-2-2-2-2-2-2-2-
B-3-3-3-3-3-3-3-3-4-4-4-4-4-4-4-4-3-3-3-3-3-3-3-3-3-3-3-3-3-3-3-3-
G-3-3-3-3-3-3-3-3-3-3-3-3-3-3-3-3-2-2-2-2-2-2-2-2-2-2-2-2-2-2-2-2- X2
D-5-5-5-5-5-5-5-5-5-5-5-5-5-5-5-5-4-4-4-4-4-4-4-4-4-4-4-4-4-4-4-4-
A-5-5-5-5-5-5-5-5-6-6-6-6-6-6-6-6-5-5-5-5-5-5-5-5-5-5-5-5-5-5-5-5-
D---------------------------------------------------------------------------------














Couplet:
(no dist)
e-3-3---3-3---2-2---2-2---3-3---3-3---2-2---2-2---
b-3-3---4-4---3-3---3-3---3-3---4-4---3-3---3-3---
g-3-3---3-3---2-2---2-2---3-3---3-3---2-2---2-2---
d--------------------------------------------------------- X4
a---------------------------------------------------------
d---------------------------------------------------------

e-3-3---3-3---2-2---2-2---3-3---3-3---2-2---2-2---
b-3-3---4-4---3-3---3-3---3-3---4-4---3-3---3-3---
g-3-3---3-3---2-2---2-2---3-3---3-3---2-2---2-2---
d-5-5---5-5---4-4---4-4---5-5---5-5---4-4---4-4--- X4
a-5-5---6-6---5-5---5-5---5-5---6-6---5-5---5-5---
d---------------------------------------------------------

Bridge:
With dist:
E---------------------------------------------------------------------------------
B---------------------------------------------------------------------------------
G---------------------------------------------------------------------------------
D-5-5-5-5-5-5-5-5-8-8-8-8-8-8-8-8-1-1-1-1-1-1-1-1-0-0-0-0-0-0-0-0- X2
A-5-5-5-5-5-5-5-5-8-8-8-8-8-8-8-8-1-1-1-1-1-1-1-1-0-0-0-0-0-0-0-0-
D-5-5-5-5-5-5-5-5-8-8-8-8-8-8-8-8-1-1-1-1-1-1-1-1-0-0-0-0-0-0-0-0-

Let the last 0 ring for about 8 counts

Solo:
E-----------------------------------------------------------------------------------
B-----------------------------------------------------------------------------------
G-12-12-12-12-12-12-12-12-12-12-12-12-12-12-12-12-------------------  x2
D---second-time-twice-as-fast-and-twice-as-more-------------------------
A----------------------------------------------------------------------------------
D----------------------------------------------------------------------------------

E-----------------------------------------------------------------------------------
B-----------------------------------------------------------------------------------
G-10-12-10-12-10-12-10-12---------------------------------------------------
D----------------------------------10-12-10-12-10-12-10-12------------------ x2
A-----------------------------------------------------------------------------------
D-----------------------------------------------------------------------------------

E-1/9-9/1-3-4-3-4-34-3-4-3-4----------------------------------3-4-3-4-3-4--
B----------------------------------3-4-3-4-3-4------------------------------------
G-------------------------------------------------3-4-3-4-3-4-3------------------
D------------------------------------------------------------------------------------
A------------------------------------------------------------------------------------
D------------------------------------------------------------------------------------



En this is the beauty part of the solo(with dist)
(the 2-3-2 part X2)
E-3----------3-----------3-----------3-----------2-----------2----------2---
B----3---3-----3------3----4-----4-----4----4-----3-----3-----3----3-----
G------3-----------3-----------3-----------3-----------2-----------2-------- X2
D------------------------------------------------------------------------------
A------------------------------------------------------------------------------
D------------------------------------------------------------------------------

E-3-3-3-3-3-3-3-3-3-3-3-3-3-3-3-3-2-2-2-2-2-2-2-2-2-2-2-2-2-2-2-2-
B-3-3-3-3-3-3-3-3-4-4-4-4-4-4-4-4-3-3-3-3-3-3-3-3-3-3-3-3-3-3-3-3-
G-3-3-3-3-3-3-3-3-3-3-3-3-3-3-3-3-2-2-2-2-2-2-2-2-2-2-2-2-2-2-2-2- X2
D-5-5-5-5-5-5-5-5-5-5-5-5-5-5-5-5-4-4-4-4-4-4-4-4-4-4-4-4-4-4-4-4-
A-5-5-5-5-5-5-5-5-6-6-6-6-6-6-6-6-5-5-5-5-5-5-5-5-5-5-5-5-5-5-5-5-
D---------------------------------------------------------------------------------

(this below is with no dist, and pick very softly)
E-3----------3-----------3-----------3-----------2-----------2----------2---
B----3---3-----3------3----4-----4-----4----4-----3-----3-----3----3-----
G------3-----------3-----------3-----------3-----------2-----------2-------- X2
D------------------------------------------------------------------------------
A------------------------------------------------------------------------------
D------------------------------------------------------------------------------
            

comments powered by Disqus
↑ Back to top | Apace Tabs for I'd Like Some Cocaine. Lyrics for acoustic guitar and electric guitar. Tablatures and chords are parodies/interpretations of the original songs. You may use it for private study, scholarship, research or language learning purposes only