» » »

Hate Love Tabs (ver.1)

Artists:  A B C D E F G H I J K L M N O P Q R S T U V W X Y Z # 

Hate Love Tabs (ver.1)

Apace
Rating:
0/5 (0 votes)

Hard to play? Try these video lessons and learn fast.
                This is a song from my band apace: henk jan, slobo, Mendel 
So don’t ***i*g copy it!
Let the last 3 ring for about ¼ or 2/4 seconds
And let the last 2 ring for about ¼ second

DROP D TUNING


E----------------------------------------------------------
B----------------------------------------------------------
G----------------------------------------------------------
D-5-4-3--2-2-XX-2-XX-2-5-4-3--2-2-XX-2-XX-2  X16
A-5-4-3--2-2-XX-2-XX-2-5-4-3--2-2-XX-2-XX-2
D-5-4-3--2-2-XX-2-XX-2-5-4-3--2-2-XX-2-XX-2

E-----------------------------------------------------------
B-----------------------------------------------------------
G-----------------------------------------------------------
D-2-2-X-2-X-2-X-4-2-2-X-2-X-2-X-4-2-2----------X8
A-2-2-X-2-X-2-X-4-2-2-X-2-X-2-X-4-2-2----------
D-2-2-X-2-X-2-X-4-2-2-X-2-X-2-X-4-2-2----------

E------------------------------------------------------------
B------------------------------------------------------------
G------------------------------------------------------------ X4
D-14-17-19-14-17-19-14-18-19-14-18-19-14-18-19 really fast--
A------------------------------------------------------------
D------------------------------------------------------------

E---------------------------------------------------------------------------------------------------------------
B17-17-17-17-17-17-17-17-17-17-17-17-17-17-17-17-17-17-17-17-17-17-17-17-17-17-17-17
G---------------------------------------------------------------------------------------------------------------
D---------------------------------------------------------------------------------------------------------------
A---------------------------------------------------------------------------------------------------------------
D---------------------------------------------------------------------------------------------------------------

E-12-12-12-12-12-12-12-12-------------------------------------------------------------------------------
B---------------------------------12-12-12-12-12-12-12-12-----------------------------------------------
G-----------------------------------------------------------------13-13-13-13-13-13-13-13---------------
D-------------let the last 14 ring until you don’t hear it----------------------------------14-14-14-14
A---------------------------------------------------------------------------------------------------------------
D---------------------------------------------------------------------------------------------------------------
X8

Tremolo pick this 17’s solo on a   4  , if you don’t think its possible
                                  ---
                                  32
            
Hard to play? Try these video lessons and learn fast. | Correct




comments powered by Disqus
↑ Back to top | Tablatures and chords are parodies/interpretations of the original songs. You may use it for private study, scholarship, research or language learning purposes only