» » »

Decisions Tabs (ver.1)

Artists:  A B C D E F G H I J K L M N O P Q R S T U V W X Y Z # 

Decisions Tabs (ver.1)

Apace
Rating:
0/5 (0 votes)

Hard to play? Try these video lessons and learn fast.
                Drop D tuning

This is actually an old song from me, but today is the day that I’m tabbing it
(  21-06-03 )
please rate it

Intro : 

E--------------------------------------------------------------------------------
B--------------------------------------------------------------------------------
G--------------------------------------------------------------------------------
D-7-7-7-7-7-7-7-7-7-7-7-7-7-7-7-7-8-8-8-8-8-8-8-8-8-8-8-8-8-8-8-8
A-5-5-5-5-5-5-5-5-5-5-5-5-5-5-5-5-5-5-5-5-5-5-5-5-5-5-5-5-5-5-5-5
D--------------------------------------------------------------------------------

E--------------------------------------------------------------------------------
B--------------------------------------------------------------------------------
G--------------------------------------------------------------------------------
D-5-5-5-5-5-5-5-5-5-5-5-5-5-5-5-5-7-7-7-7-7-7-7-7-7-7-7-7-7-7-7-7
A-5-5-5-5-5-5-5-5-5-5-5-5-5-5-5-5-5-5-5-5-5-5-5-5-5-5-5-5-5-5-5-5
D--------------------------------------------------------------------------------

E--------------------------------------------------------------------------------
B--------------------------------------------------------------------------------
G--------------------------------------------------------------------------------
D-3-3-3-3-3-3-3-3-3-3-3-3-3-3-3-3-5-5-5-5-5-5-5-5-5-5-5-5-5-5-5-5
A-5-5-5-5-5-5-5-5-5-5-5-5-5-5-5-5-5-5-5-5-5-5-5-5-5-5-5-5-5-5-5-5
D--------------------------------------------------------------------------------

E---------------------------------------------------------------------------------
B---------------------------------------------------------------------------------
G---------------------------------------------------------------------------------
D-2-2-2-2-2-2-2-2-2-2-2-2---------------------------------------------------
A-4-4-4-4-4-4-4-4-4-4-4-4-0-0-0-0-----------------------------------------
D---------------------------------------------------------------------------------

E---------------------------------------------------------------------------------
B---------------------------------------------------------------------------------
G---------------------------------------------------------------------------------
D-0-0-0-0-0-10-10-12-0-0-0-0-0-10-11-12-------------------------------- X2
A---------------------------------------------------------------------------------
D---------------------------------------------------------------------------------










E--------------------------------------------------------------------------------------------------------
B--------------------------------------------------------------------------------------------------------
G--------------------------------------------------------------------------------------------------------
D-0-0-0-0-0-10-11-12-0-0-0-0-0-10-11-12-0-10-11-12-0-10-11-12-0-10-0-10-0-10-0-10
A-0-don’t-let-them-ring0----------------------0-------------0-------------0-----0-----0-----0----
D-0-don’t-let-them-ring0----------------------0-------------0-------------0-----0-----0-----0----

E--------------------------------------------------------------------------------------------------------
B--------------------------------------------------------------------------------------------------------
G-------------------------------------------------------------------------------------------------------- X2
D-0-0-0-0-0-10-10-12-0-0-0-0-0-10-11-12-0-0-0-0-0-10-10-12-0-0-0-0-0-10-11-12------
A-0-0-0-0-0-10-10-12-0-0-0-0-0-10-11-12-0-0-0-0-0-10-10-12-0-0-0-0-0-10-11-12------
D-0-0-0-0-0-10-10-12-0-0-0-0-0-10-11-12-0-0-0-0-0-10-10-12-0-0-0-0-0-10-11-12------

Couplet:
E-----------------------------------------------------------------------------------------------------------
B-----------------------------------------------------------------------------------------------------------
G-----------------------------------------------------------------------------------------------------------
D-7-X-7-X-7-X-7-X-8-X-8-X-8-X-8-X-5-X-5-X-5-X-5-X-7-X-7-X-7-X-7-X----------------
A-5-X-5-X-5-X-5-X-5-X-5-X-5-X-5-X-5-X-5-X-5-X-5-X-5-X-5-X-5-X-5-X----------------
D-----------------------------------------------------------------------------------------------------------

E-----------------------------------------------------------------------------------------------------------
B-----------------------------------------------------------------------------------------------------------
G-----------------------------------------------------------------------------------------------------------
D-3-X-3-X-3-X-3-X-5-X-5-X-5-X-5-X-2-X-2-X-2-X-2-X-2-X-2-X-2-X-2--------------------
A-5-X-5-X-5-X-5-X-5-X-5-X-5-X-5-X-4-X-4-X-4-X-4-X-4-X-4-X-4-X-4--------------------
D------------------------------------------------------------------------------------------------------------

This whole couplet X2
At the and of the second time from the couplet, don’t play the last four notes. Play then this

E-------------------------------------------------------------------------------------------------------------
B------------------------------------------------------------------------------------------------------------
G------------------------------------------------------------------------------------------------------------
D-2.9-2.9-2.9-2.9----play—it---harmony--------------------------------------------------------------
A-------------------------------------------------------------------------------------------------------------
D-------------------------------------------------------------------------------------------------------------













Refrain:

E-5               E-5             E-6                 E-5        E-5          
B-5               B-6             B-6                B-6        B-5
G-6   X16     G-7 X16    G-7   X16       G-7 X8  G-6  X8
D-7               D-7            D-8                D-7        D-7
A-7               A-5            A-8                A-5        A-7  
D--                D--            D--                D---        D—

E-6             E-5           E-5
B-6             B-6          B-5 
G-7 X16    G-5  X16  G-6  X32
D-8            D-7           D-7
A-8            A-8           A-7
D--             D--           D—

E--------------------------------------------------------------------------------------------------------
B--------------------------------------------------------------------------------------------------------
G-------------------------------------------------------------------------------------------------------- X2
D-0-0-0-0-0-10-10-12-0-0-0-0-0-10-11-12-0-0-0-0-0-10-10-12-0-0-0-0-0-10-11-12------
A-0-0-0-0-0-10-10-12-0-0-0-0-0-10-11-12-0-0-0-0-0-10-10-12-0-0-0-0-0-10-11-12------
D-0-0-0-0-0-10-10-12-0-0-0-0-0-10-11-12-0-0-0-0-0-10-10-12-0-0-0-0-0-10-11-12------

Couplet:
E-----------------------------------------------------------------------------------------------------------
B-----------------------------------------------------------------------------------------------------------
G-----------------------------------------------------------------------------------------------------------
D-7-X-7-X-7-X-7-X-8-X-8-X-8-X-8-X-5-X-5-X-5-X-5-X-7-X-7-X-7-X-7-X----------------
A-5-X-5-X-5-X-5-X-5-X-5-X-5-X-5-X-5-X-5-X-5-X-5-X-5-X-5-X-5-X-5-X----------------
D-----------------------------------------------------------------------------------------------------------

E-----------------------------------------------------------------------------------------------------------
B-----------------------------------------------------------------------------------------------------------
G-----------------------------------------------------------------------------------------------------------
D-3-X-3-X-3-X-3-X-5-X-5-X-5-X-5-X-2-X-2-X-2-X-2-X-2-X-2-X-2-X-2--------------------
A-5-X-5-X-5-X-5-X-5-X-5-X-5-X-5-X-4-X-4-X-4-X-4-X-4-X-4-X-4-X-4--------------------
D------------------------------------------------------------------------------------------------------------












Refrain:

E-5               E-5             E-6                 E-5        E-5          
B-5               B-6             B-6                B-6        B-5
G-6   X16     G-7 X16    G-7   X16       G-7 X8  G-6  X8
D-7               D-7            D-8                D-7        D-7
A-7               A-5            A-8                A-5        A-7  
D--                D--            D--                D---        D—

E-6             E-5           E-5
B-6             B-6          B-5 
G-7 X16    G-5  X16  G-6  X32
D-8            D-7           D-7
A-8            A-8           A-7
D--             D--           D—



And then the cool End Riff:

E-----------------------------------------------------------------------------------------------
B-----------------------------------------------------------------------------------------------
G-----------------------------------------------------------------------------------------------
D-----------------------------------------------------------------------------------------------
A-----------------------------------------------------------------------------------------------
D-19-0-0-0-17-0-0-15-0-0-14-0-12-0-11-0-19-0-0-0-17-0-0-15-0-0-14-0-12-0-11

E-----------------------------------------------------------------------------------------------
B-----------------------------------------------------------------------------------------------
G-----------------------------------------------------------------------------------------------
D-19-0-0-0-17-0-0-15-0-0-14-0-12-0-11-0-19-0-0-0-17-0-0-15-0-0-14-0-12-0-11
A-19-0-0-0-17-0-0-15-0-0-14-0-12-0-11-0-19-0-0-0-17-0-0-15-0-0-14-0-12-0-11 X2
D-19-0-0-0-17-0-0-15-0-0-14-0-12-0-11-0-19-0-0-0-17-0-0-15-0-0-14-0-12-0-11

End with this (after the last 11)

E---------------------------------------------------------------------------------------------------
B---------------------------------------------------------------------------------------------------
G---------------------------------------------------------------------------------------------------
D-0---and—pick—it—so—hard-that--it—wil---ring---verry---long---------------------
A-0---and—pick—it—so—hard-that--it—wil---ring---verry---long---------------------
D-0---and—pick—it—so—hard-that--it—wil---ring---verry---long---------------------
            
Hard to play? Try these video lessons and learn fast. | Correct




comments powered by Disqus
↑ Back to top | Tablatures and chords are parodies/interpretations of the original songs. You may use it for private study, scholarship, research or language learning purposes only