» » »

Anuar Zain, Suasana Hari Raya Tabs (ver.1)

Artists:  A B C D E F G H I J K L M N O P Q R S T U V W X Y Z # 

Suasana Hari Raya Tabs (ver.1)

Anuar Zain Tabs
 Rating:
4/5 (9 votes)
Suasana Hari Raya lessons Tabs too difficult? Try these video lessons and learn fast
                Anuar Zain & Ellina - Suasana Hari Raya


Intro 2x

E-----------------9----9---------------------------------------------|
B-9-9-10-10-12-12---12---12-10-9-10-9----------9-10-10-9-10-9-10-12--|
G-9-9---------------------------------11-11-11-----------------------|
D--------------------------------------------------------------------|
A--------------------------------------------------------------------|
E--------------------------------------------------------------------|

E-----------------9----9---------------------------------------------|
B-9-9-10-10-12-12---12---12-10-9-10-9--------------------------------|
G-9-9---------------------------------11-11-11-9-8-9-9---------------|
D--------------------------------------------------------------------|
A--------------------------------------------------------------------|
E--------------------------------------------------------------------|


  Berlalulah  sudah ramadan   sebulan berpuasa
E---------------------------------------------------|
B-9-9-9h10----9-10-9------------------9-10-9-10-12--|
G----------11--------11-9-11--11-11-11--------------|
D---------------------------------------------------|
A---------------------------------------------------|
E---------------------------------------------------|

  Tiba syawal kita  rayakan   dengan rasa gembira
E---------------------------------------------------|
B-9-9-9h10----9-10-9------------------9-10-9-10-12--|
G----------11--------11-9-11--11-11-11--------------|
D---------------------------------------------------|
A---------------------------------------------------|
E---------------------------------------------------|

  Anak muda di rantauan semuanya pulang ke desa
E---------9-----------------------------------------|
B-9-10-12---12-10-9-10--------9-10-12-10-9----9-----|
G-----------------------11-11--------------11-------|
D---------------------------------------------------|
A---------------------------------------------------|
E---------------------------------------------------|

 Ibu dan ayah keriangan bersyukur tak terkira
E---------------------------------------------------|
B--------9-10-9-------------------------------------|
G-9-9-11--------11-9-11-8-8-8-9----8-9--------------|
D-------------------------------11------------------|
A---------------------------------------------------|
E---------------------------------------------------|




 Bertukar senyuman dan salam ziarah-menziarahi
E---------------------------------------------------|
B-9-9-9----9-10-9--------------------9-10-9-10-12---|
G-------11--------11-9-11---11-11-11----------------|
D---------------------------------------------------|
A---------------------------------------------------|
E---------------------------------------------------|

 Tutur dan kata yang sopan saling memaafi 
E---------------------------------------------------|
B-9-9-9----9-10-9------------------9-10-9-10-12-----|
G-------11--------11-9-11--11-11-11-----------------|
D---------------------------------------------------|
A---------------------------------------------------|
E---------------------------------------------------|

  Suasana hari raya       walau di mana pun jua
E-----------9---------------------------------------|
B-9-9-10-12---12-10-9-10--------9-10-12-10-9----9---|
G-------------------------11-11--------------11-----|
D---------------------------------------------------|
A---------------------------------------------------|
E---------------------------------------------------|

 Memberikan ketenangan    dan mententeramkan jiwa
E---------------------------------------------------|
B--------9-10-9-------------------------------------|
G-9-9-11--------11-9-11---8-8-8-9----8-9------------|
D---------------------------------11----------------|
A---------------------------------------------------|
E---------------------------------------------------|

Chorus


Kuih dan muih beranika macam
E---------------------------------------------------|
B-9h10----9-10-10-9-10-12-9-------------------------|
G------11-------------------11-9--------------------|
D---------------------------------------------------|
A---------------------------------------------------|
E---------------------------------------------------|

Makanlah jangan hanya di pandang
E---------------------------------------------------|
B-----9---------------------------------------------|
G---9---11-11-9-8-9-11-9----------------------------|
D-9-------------------------------------------------|
A---------------------------------------------------|
E---------------------------------------------------|

Ketupat rendang sila nikmati kawan
E---------------------------------------------------|
B-9h10----9-10-10-9-10-12-9-------------------------|
G------11-------------------11-9--------------------|
D---------------------------------------------------|
A---------------------------------------------------|
E---------------------------------------------------|

Penat memasak malam ke pagi
E---------------------------------------------------|
B-----9---------------------------------------------|
G---9---11-11-9-8----8-9----------------------------|
D-9---------------11--------------------------------|
A---------------------------------------------------|
E---------------------------------------------------|

Wajik dan dodol jangan lupakan
E---------------------------------------------------|
B-9h10----9-10-10-9-10-12-9-------------------------|
G------11-------------------11-9--------------------|
D---------------------------------------------------|
A---------------------------------------------------|
E---------------------------------------------------|

Peninggalan nenek zaman berzaman
E---------------------------------------------------|
B-----9---------------------------------------------|
G---9---11-11-9-8-9-11-9----------------------------|
D-9-------------------------------------------------|
A---------------------------------------------------|
E---------------------------------------------------|

Asyik bersembang pakcik dan makcik
E---------------------------------------------------|
B-9h10----9-10-10-9-10-12-9-------------------------|
G------11-------------------11-9--------------------|
D---------------------------------------------------|
A---------------------------------------------------|
E---------------------------------------------------|

Hai duit raya lupa nak di beri
E---------------------------------------------------|
B-----9---------------------------------------------|
G---9---11-11-9-8----8-9----------------------------|
D-9---------------11--------------------------------|
A---------------------------------------------------|
E---------------------------------------------------|


Intro 2x
            
Submit corrections

comments powered by Disqus
↑ Back to top | Anuar Zain Tabs for Suasana Hari Raya. Lyrics for acoustic guitar and electric guitar. Tablatures and chords are parodies/interpretations of the original songs. You may use it for private study, scholarship, research or language learning purposes only