>
 >
Lighthouse

Lighthouse Guitar Tabs

Antje Duvekot - Lighthouse chords, tabs, tablatures, lyrics

Guitar lessons | Add/correct | Request | Top 50 tabs Artists:  A B C D E F G H I J K L M N O P Q R S T U V W X Y Z 0-9

Lighthouse Guitar Tabs – Antje Duvekot

CD, Sheet music, Poster

Do you like Lighthouse? Share with your friends now
Tabs
Lighthouse (live) -- Antje Duvekot

Capo I

You, you're not the first to            A
Ask, and probably not the               D
Last, and I don't expect you            E
To understand                           A-E

Why I stayed upon that                  A
Rock, after the birds had               D
Gone and all of the waves turned        E
To sand                                 A-E

But I am a lighthouse in a              F#m-E
Desert and I stand alone                D-E
I dream of an ocean that was            F#m-E
Here a long time ago and I              D-E
Remember his cool waters and I still    B7-E
Glow                                    A

Well these days, the sunlight has bleached my   A
Paint and the moonlight has made it             D
Plain that nobody needs me to                   E
Call them home                                  A-E

But I swear there was a time when        A
I would shine for him through the        D
Night, well he was the only              E
Ocean -- that I have known               A-E

And I am a lighthouse in a               F#m-E
Desert and I stand alone                 D-E
I dream of an ocean that was             F#m-E
Here a long time ago and I               D-E
Remember his cool waters and I still     B7-E
Glow                                     A

Now my lantern bears a crack and I       D*
Know he will not be back but             F#m*
I will leave the light on                D*
Forever                                  Fmaj7-6 (xx3230)

'Cause I am a lighthouse in a            F#m-E
Desert and I stand alone                 D-E
I dream of an ocean that was             F#m-E
Here a long time ago and I               D-E
Remember his cool water, I               B7-E
Remember his cool water, I               B7-E
Remember his cool water, and I still     B7-E
Glow                                     A*


Fingerpicking patterns for each chord measure as labeled w/ lyrics
(waltz feel):

 A                       | D (bar strings 1-3 at 2nd fret)
-------------------------|-2---2-5---5-2---2-4---4-|
-2---2-3---3-2---2-0---0-|-3---3-3---3-3---3-3---3-|
-2---2-2---2-2---2-2---2-|---2-----2-----2-----2---|
---2-----2-----2-----2---|-0-----0-----0-----0-----|
-0-----0-----0-----0-----|-------------------------|
-------------------------|-------------------------|

 E                       | A-E
-------------------------|-------------------------|
-0---0-0---0-0---0-0---0-|-2---2-3---3-0---0-0---0-|
-2---2-1---1-2---2-1---1-|-2---2-2---2-2---2-1---1-|
-2-2---2-2---2-2---2-2---|---2-----2---2-2---2-2---|
-------------------------|-0-----0-----------------|
-0-----0-----0-----0-----|-------------0-----0-----|

 F#m-E                   | D-E
-------------------------|-2---2-5---5-------------|
-2---2-2---2-0---0-0---0-|-3---3-3---3-0---0-0---0-|
-2---2-2---2-2---2-1---1-|---2-----2---2---2-1---1-|
-4-4---4-4---2-2---2-2---|-0-----0-----2-2---2-2---|
-------------------------|-------------------------|
-2-----2-----0-----0-----|-------------0-----0-----|

 B7-E                    | D*
-------------------------|-2---2-5---5-4---4-2---2-|
-4-----4-----0---0-0---0-|-3---3-3---3-3---3-3---3-|
-----2---2---2---2-1---1-|---2-----2-----2-----2---|
---4-------4-2-2---2-2---|-0-----0-----0-----0-----|
-2-----2-----------------|-------------------------|
-------------0-----0-----|-------------------------|

F#m*                     | Fmaj7-6
-------------------------|-------0-----------0-----|
-2-----2-----2-----2-----|-----3---3-------3---3---|
-----------2-----------2-|---2-------2---2-------2-|
---4-----4-----4-----4---|-3-----------3-----------|
-----4-----------4-------|-------------------------|
-2-----2-----2-----2-----|-------------------------|

 A* (slowly)
-----------------------|
-2---2-3---3-2---0-0h2-|
-2---2-2---2-2---2-2---|
---2-----2-----2-------|
-0-----0-----0-----0---|
-----------------------|





Comments


Popular Antje Duvekot tabs & chords
Jerusalem Chords
Landlady Song Chords
Merry-Go-Round Chords
Dandelion Tabs
Long Way Tabs
Long Way 1 Tabs
Sex Bandaid Tabs
Landlady Song Ukulele
Merry-go-round Ukulele
Streets Of Soho Ukulele


Song lyrics



↑ Back to top | Tablatures and chords are parodies/interpretations of the original songs. You may use it for private study, scholarship, research or language learning purposes only
© 2014 AZChords.com Contact us | Privacy policy | DMCA | Add/correct tabs | Request tabs | Top 50 tabs