» » »

Dianas Song Tabs (ver.1)

Artists:  A B C D E F G H I J K L M N O P Q R S T U V W X Y Z # 

Dianas Song Tabs (ver.1)

Antje Duvekot
Rating:
0/5 (0 votes)

Hard to play? Try these video lessons and learn fast.
                Diana's Song -- Antje Duvekot

Based on Little Peppermints recording; may play simplified at Capo III live.
Line numbers associate with tab below; lyric hints are cued to downbeat.

1a. When I was a little butterfly, I wasn't off to the best start
I flew right into a big wet puddle and would not have gotten far
1b. Little wings stuck to the pavement amidst pedestrians and cars
But you spotted me and picked me up cause that's the way you are
That's the way

2. Well you took me in and dried me off and I wondered what I did
To deserve a spot in your loving heart, now you're never getting rid of me

Chorus:
And I could search the whole wide world
Until my feet hurt, for a friend like you
And I could make it a full time task, I don't think anyone would pass
Cause I love you more than I could ever sing
More than most anything

3a. Winter, spring, summer, fall, tupperware, and fudge
And your little butterfly flew crooked but you loved me just as much
3b. And you said, "Take my love with you, this will always be your home
You may flutter off in crooked flight, but you will never be alone"

Chorus:
And I know I would have to search the whole wide world
Until my feet hurt, for a friend like you
And I could make it a full time task, I don't think anyone would pass
Cause I love you more than I could ever sing
More than most anything

Interlude

4. Well maybe one day I'll be famous and maybe one day I'll be rich
And I will buy you a mansion and some German kitchen knives
5. But just in case that doesn't happen, I wrote this song here to remind you
Of how very much I love you, so let me tell you one more time

Chorus:
I know that I would have to search the whole wide world until my feet hurt
For a friend like you
And I could make it a full time task, I don't think anyone would pass
Cause I love you more than I could ever sing
More than most anything...
More than most anything...
More than most anything...

Capo II

Intro:
----------------------------------|
-------------3--------------------|
---0---0----0-----0---0---0--0----|
---0---0---0------0---0---0----0--|
-3--/5----------3--/5-------------|
---------3--------------3---3-3---|

1:                                                    |a.      |b.
------------------------------------------------------|--------|--------|
--------------3--------------3----------------------3-|------3-|--------|
---0---0----0-----0---0----0-----0---0---0---0----0---|----2---|----2---|
---0---0---0------0---0---0------0---0---0---0---2----|---0----|---0--0-|
-3--/5----------3--/5----------3--/5-----------3---3--|--------|--------|
---------3---3----------3---3----------3---0----------|-2---2--|-2---2--|
 was a little butterfly...
 wings stuck to the pavement...

           ---------------------------|
           ----------------------3----|
           ---0---0---0---0----0---0--|
           ---0---0-2---0-----0----4--|
           -----------------3---3--5--|
           -3---2---0-----------------|
That's the wa--y...

2:
-------------------------------------------------------------|
--------------3--------------3--------------3----3------3----|
---0---0----0-----0---0----0-----0---0----0--------0------2--|
---0---0---0------0---0---0------0---0---0------2------0-----|
-3--/5----------3--/5----------3--/5----------3---3----------|
---------3---3----------3---3----------3---3---------2---2---|
 took me in

Chorus:
-------------------------------------------------------------|
--------------3--------------3--------------3------3---------|
---0---0----0-----0---0----0-----0---0----0------2-------2---|
---0---2---0------0---2---0------0---2---0------0-------0--0-|
-----3--------------3--------------3-------------------------|
-0-------3---3--0-------3---3--0-------3---3--2---2---2---2--|
 I-- could search

-----------------------------------------------------------|
--------------3--------------3----------------------3------|
---0---0----0-----0---0----0-----0---0---0---0-----0----0--|
---0---0---0------0---0---0------0---0---0---0----2-----2--|
-3--/5----------3--/5----------3--/5-----------3----3---3--|
---------3---3----------3---3----------3---2---------------|
 Make it a full-time task...

                  -----------------------------|
                  -----------------------3-----|
                  ---0---0---0---0-----0----0--|
                  ---0---0-2---0------0-----4--|
                  -----------------3----3---5--|
                  -3---2---0-------------------|
More than most anything...

3:                                                    |a.      |b.
------------------------------------------------------|-0------|--------|
--------------3--------------3----------------------3-|-3------|----0---|
---0---0----0-----0---0----0-----0---0---0---0----0---|---0----|------2-|
---0---0---0------0---0---0------0---0---0---0---2----|----4---|---0----|
-3--/5----------3--/5----------3--/5-----------3---3--|-5----5-|--------|
---------3---3----------3---3----------3---0----------|--------|-2---2--|
 Winter, spring...
 Take my love with you...

Chorus ("And I know I would have to search...")

Interlude:
     ---------------------------------------------------------------|
     --------------3--------------3--------------3-------3------3---|
     ---0---0----0-----0---0----0-----0---0----0-------0---0----2---|
     ---0---0---0------0---0---0------0---0---0-------2---------0---|
     -3--/5----------3--/5----------3--/5---------------------------|
     ---------3---3----------3---3----------3---3---2---2----2------|
La la la, la-la, la-la, la...


4:
-------------------------------------------------------------|
--------------3--------------3--------------3----3------3----|
---0---0----0-----0---0----0-----0---0----0--------0----0----|
---0---0---0------0---0---0------0---0---0------2-----2-2----|
-3--/5----------3--/5----------3--/5----------3---3-----3----|
---------3---3----------3---3----------3---3-----------------|
 one day I'll be famous...

5:
---------------------------------------------------------------|
--------------3------------3----------------3-------3----3-----|
---0---0----0-----0---0------0---0---0----0----0--0---2----2---|
---0---0---0------0---0---0------0---0---0-------2------0------|
-3--/5----------3--/5----------3--/5-----------3---3-----------|
---------3---3----------3---3----------3---3----------2---2----|
 case that doesn't happen...

Chorus w/ alt. ending:

                  ---------------------------------|
                  --------------3-----3--3----3----|
                  ---0---2----0---------0--------0-|
                  ---2---0---0-------2-------2-----|
                  -----------------3---3---3---3---|
                  -0---2---3---3-------------------|
More than most anything...

                  ------------------------------------------------------|
                  ----------------------3------3----------------3-------|
                  ---0---0---0---0----0---0-------0-----------0----0----|
                  ---0---0-2---0-----2--------4-----4-------0-----------|
                  -----------------3---3----5---------5-----------------|
                  -3---2---0------------------------------3-----------3-|
More than most anything...                 More than most anything.
            
Hard to play? Try these video lessons and learn fast. | Correct




comments powered by Disqus
↑ Back to top | Tablatures and chords are parodies/interpretations of the original songs. You may use it for private study, scholarship, research or language learning purposes only