» » »

Antje Duvekot, Coney Island Tabs (ver.1)

Artists:  A B C D E F G H I J K L M N O P Q R S T U V W X Y Z # 

Coney Island Tabs (ver.1)

Antje Duvekot Tabs
Rating:
0/5 (0 votes)
Coney Island lessons Tabs too difficult? Try these video lessons and learn fast
                Coney Island -- Antje Duvekot -- The Near Demise of the High Wire Dancer

Verse 1:
Well the Empire State is gleaming, and it's a perfect Friday night
Hold me down 'cause I am feeling high as a kite
'Cause I'm not living for the landing, tonight I'm living for the flight
Don't wanna capture the moment, I just wanna let it go by

Chorus:
'Cause in a world so full of troubles I think that we've seen enough
They'll still be here tomorrow when the sun comes up

Verse 2:
Well in a cab that crosses Brooklyn, I'll be your stolen pirate-bride
And I still feel like I am falling when I look in your eyes
And in the dunes at Coney Island will you kiss me on the lips
Like it was the first time and I will pretend to resist

Chorus 2 w/ vocal solo (I... I... I..., ah... ah... ah...)

Verse 3:
So will you hold me until we crumble under a dying August moon
Buy me an old-fashioned rootbeer 'cause one day the old world will lose
And we'll go dancing on the levy with the sand beneath our feet
'Cause time passes with such violence we're just heartbeats on a sea

Chorus 3:
'Cause in a world full of troubles I think that we've seen enough
And they'll still be here tomorrow, they'll still be here tomorrow,
They'll still be here tomorrow when the sun comes up

-----------------------------------------------------------------
***Extended-bass capo arrangement:*** Capo IV like normal AND capo
strings 1-5 at VI. Leave enough room to play the 6th string at the
actual 6th fret! (Shown as 6*).

Verse: (use first two lines of tab as intro)
--------------------------------------------------|
---3-3---1-1---0-0---1-0---6-6---6-6---6-6---6-6--|
---0-0---2-2---0-0---2-0---7-7---6-6---5-5---4-4--|
--------------------------------------------------|
-3-----3-----3-----3------------------------------|
-------------------------5-----5-----5-----5------|

--------------------------------------------------|
---6-6---6-6---6-6---6-6---3-3---1-1---0-0---1-1--|
---------------------------0-0---2-2---0-0---2-2--|
---7-7---7-7---7-7---7-7--------------------------|
-5-----4-----3-----3------------------------------|
-------------------------3-----3-----3-----3------|

--------------------------------------------------|
---3-3---1-1---0-0---1-0---6-6---6-6---6-6---6-6--|
---0-0---2-2---0-0---2-0---7-7---6-6---5-5---4-4--|
--------------------------------------------------|
-3-----3-----3-----3------------------------------|
-------------------------5-----5-----5-----5------|

--------------------------------------------------|
---3-3---1-1---0-0---0-0--------------------------|
---0-0---2-2---2-2---2-2---1-1---1-1---1-1---1-1--|
---------------1-1---1-1---2-2---2-2---2-2---2-2--|
-------------2-----2-----------------3-----2------|
-3-----3-----------------6*----0------------------|

Chorus:
--------------------------------------------------|
--------------------------------------------------|
---2-2---2-2---0-0---0-0---2-2---2-2---2-2---0-0--|
---3-3---3-3---2-2---0-0---0-0---0-0---3-3---3-3--|
-------------3------------------------------------|
-1-----1-----------3-----2-----2-----1-----1------|

--------------------------|
--------------------------|
---0-0---0-0---0-0---0-0--|
---3-3--------------------|
---------3-3---2-2---2-2--|
-3-----3-----3-----3------|

1st chorus ending:
---------------------------0-0--------------------|
---3-3---1-1---0-0---1-1---1-1---3-3---1-1---1-1--|
---0-0---2-2---0-0---2-2---------0-0---2-2---2-2--|
--------------------------------------------------|
-3-----3-----3-----3-----3-----3-----3-----3------|
--------------------------------------------------|

2nd chorus ending:
--------------------------------------------------|
---3-3---1-1---0-0---1-1---1-1---0-0---1-1---1-1--|
---0-0---2-2---0-0---2-2---2-2---0-0---2-2---2-2--|
--------------------------------------------------|
-3-----3-----3-----3-----0-----0-----0-----0------|
--------------------------------------------------|

--------------------------|
---3-3---1-1---0-0---1-1--|
---0-0---2-2---0-0---2-2--|
--------------------------|
--------------------------|
-3-----3-----3-----3------|

Verse 3:
--------------------------------------------------|
---3-3---1-1---0-0---1-0---6-6---6-6---6-6---6-6--|
---0-0---2-2---0-0---2-0---7-7---6-6---5-5---4-4--|
--------------------------------------------------|
-3-----3-----3-----3------------------------------|
-------------------------5-----5-----5-----5------|

----------------------------------------------------|
---3-3---1-1---0-0---0-0----------------------------|
---0-0---2-2---2-2---2-2---1-1---1-1---1-1---1-1----|
---------------1-1---1-1---2-2---2-2---2-2---2-2----|
-------------2-----2--------------------------------|
-3-----3-----------------6*----1-----6*----0--------|

--------------------------------------------------|
---3-3---1-1---0-0---1-0---6-6---6-6---6-6---6-6--|
---0-0---2-2---0-0---2-0---7-7---6-6---5-5---4-4--|
--------------------------------------------------|
-3-----3-----3-----3------------------------------|
-------------------------5-----5-----5-----5------|

--------------------------------------------------|
---------------------------3-3---1-1---0-0---1-1--|
---0-0---0-0---0-0---0-0---0-0---2-2---0-0---2-2--|
---3-3---3-3---3-3---3-3--------------------------|
--------------------------------------------------|
-1-----1-----1-----1-----3-----3-----3-----3------|

Chorus 3 & outro:
--------------------------------------------------|
--------------------------------------------------|
---2-2---2-2---0-0---0-0---2-2---2-2---2-2---0-0--|
---3-3---3-3---2-2---0-0---0-0---0-0---3-3---3-3--|
-------------3------------------------------------|
-1-----1-----------3-----2-----2-----1-----1------|

--------------------------------------------------|
---------------------------1-1---1-1--------------|
---0-0---0-0---0-0---0-0---3-3---3-3---0-0---0-0--|
---3-3-------------------3-----3-------3-3---3-3--|
---------3-3---2-2---2-2-1-----1------------------|
-3-----3-----3-----3-----------------1-----1------|

--------------------------------------------0-----|
---------------------------3-3---3-3---3-3--------|
---0-0---0-0---0-0---0-0---0-0---0-0---0-0--0-----|
---3-3--------------------------------------------|
---------3-3---2-2---2-2-3-----3-----3------3-----|
-3-----3-----3-----3------------------------------|
                                        rit.
            

comments powered by Disqus
↑ Back to top | Antje Duvekot Tabs for Coney Island. Lyrics for acoustic guitar and electric guitar. Tablatures and chords are parodies/interpretations of the original songs. You may use it for private study, scholarship, research or language learning purposes only