» » »

Red White And Brainwashed Bass tabs (ver.1)

Artists:  A B C D E F G H I J K L M N O P Q R S T U V W X Y Z # 

Red White And Brainwashed Bass tabs (ver.1)

Anti-Flag
Rating:
0/5 (0 votes)

Hard to play? Try these video lessons and learn fast.
                
INTRO


G0000000000000000000000000--------
D-------------------------1111111- 
A---------------------------------
E--------------------------------- 

Intro 2nd Part

G0000000000000000p7-0-p7-0-p7-------------------
D----------------------------1111111------------
A----------------------------------------------- 
E-----------------------------------3—-3-—3-----

Intro 3rd Part

G0-0----2-2--333-00-0----2-2--333-
D---111--------------1110---0----- 
A------0----0---------------------
E---------------------------------

Main Verse

G0-0-0-0---------2-2-2-2-3-3-3-3-
D--------1-1-1-1----------------- 
A---------------0-------0--------
E--------------------------------


Bridge

G-----------------
D----4-4-3-3------ 
A-1----------4-4--
E-----------------


Bridge #2

G----------------------------------
D----------------------------00-33-
A-4444444444444444-0-000--33-------
E-----------------------0----------


ORDER AS FOLLOWS

Intro         x2
Intro 2nd Part x1
Intro 3rd Part x4
Main verse    x4
Bridge        x3
Main verse    x6
Bridge        x3
Intro         x2
Bridge #2     x4
Main verse    x4
Bridge        x3
Main Verse    x6
Bridge        x3
Main verse    x4
            
Hard to play? Try these video lessons and learn fast. | Correct




comments powered by Disqus
↑ Back to top | Tablatures and chords are parodies/interpretations of the original songs. You may use it for private study, scholarship, research or language learning purposes only