» » »

Anthony Green, Baby Girl Bass tabs (ver.1)

Artists:  A B C D E F G H I J K L M N O P Q R S T U V W X Y Z # 

Baby Girl Bass tabs (ver.1)

Anthony Green Tabs
Rating:
0/5 (0 votes)
Baby Girl lessons Tabs too difficult? Try these video lessons and learn fast
                Great song.  Great artist.

Intro/Verse (repeat 4 times or so.  you'll notice when it changes.)
G---------------------------------------|
D---------------------------------------|
A---------------------------------------|
E--5555--55-55---5555--55-55------------|

G----------------------------------------| [this is just the general pattern
D------------7---------------------------| there is a chord at the end of this part that i
A-----99--9--9---------------------------| cant figure out.  i'll be back with changes
E--77----7-------------------------------| later.  but this is the basic idea.]

Chorus (repeat about 7 times)
G-------------------------------------------|
D--9---6(let ring)--------------------------|
A----9--------------------------------------|
E-------------------------------------------|

G-----------------------------------------| [on the 8th time end on (6).]
D--9---(6)6-------------------------------|
A----9----9-7-----------------------------|
D-----------------------------------------|

Outro
G-------------------------------------------|
D--9----------------------------------------|
A----9-11(let ring)-------------------------|
E-------------------------------------------|

G-------------------------------------------|
D--9----------------------------------------|
A---9-11-9-7(let ring)----------------------|
E-------------------------------------------|

that's about all there is to it.  i'll be updating this tab later this month.  i need 
more time to work out the second part of the verse.  any suggestions are welcome.
            

comments powered by Disqus
↑ Back to top | Anthony Green Bass for Baby Girl. Lyrics for acoustic guitar and electric guitar. Tablatures and chords are parodies/interpretations of the original songs. You may use it for private study, scholarship, research or language learning purposes only