» » »

See See Rider Tabs (ver.2)

Artists:  A B C D E F G H I J K L M N O P Q R S T U V W X Y Z # 

See See Rider Tabs (ver.2)

Animals
Rating:
0/5 (0 votes)
Tabs too difficult? Try these video lessons and learn fast.
                -------------------------------------------------------------------------------
                            SEE SEE RIDER - The Animals
-------------------------------------------------------------------------------

Tuning: normal
Basic 12 bar blues progression

e|--------------------------------------------------------------------------|
B|--------------------------------------------------------------------------|
G|--------------------------------------------------------------------------|
D|----10-----8--------------------(x4)--------------------------------------|
A|-/10---8h10--10-8---------------------------------------------------------|
E|------------------11-8----------------------------------------------------|
then
e|--------------------------------------------------------------------------|
B|--------------------------------------------------------------------------|
G|----10-----8--------------------(x2)--------------------------------------|
D|-/10---8h10--10-8---------------------------------------------------------|
A|------------------11-8----------------------------------------------------|
E|--------------------------------------------------------------------------|
then back to first riff
e|--------------------------------------------------------------------------|
B|--------------------------------------------------------------------------|
G|--------------------------------------------------------------------------|
D|----10-----8--------------------(x2)--------------------------------------|
A|-/10---8h10--10-8---------------------------------------------------------|
E|------------------11-8----------------------------------------------------|
then last riff
e|----------------------------------------------------------------------------|
B|----------------------------------------------------------------------------|
G|----12-----10-------------------(x2)----------------------------------------|
D|-/12---10h12--12-10---------------------------------------------------------|
A|------------------13-10-----------------------------------------------------|
E|----------------------------------------------------------------------------|
then riff 2 (x1) and riff 1(x1)
and finish with
  PM ~~~~~~~~~~~~~
e|-------------------------------------------------------------------------|
B|-------------------------------------------------------------------------|
G|-------------------------------------------------------------------------|
D|---10-10-10-10-10-10-10-10-----------------------------------------------|
A|---10-10-10-10-10-10-10-10-----------------------------------------------|
E|---8-8-8-8-8-8-8-8-8-8-8-8-----------------------------------------------|
  PM ~~~~~~~~~~~~~

Same riff all throught the song. Enjoy!

************************************
| /   slide up
| \   slide down
| h   hammer-on
| p   pull-off
| ~   vibrato
| +   harmonic
| x   Mute note
| b   Bend
| pb  Pre-bend
| br  Bend release
| pbr Pre-bend release
| brb Bend release bend
            
Tabs too difficult? Try these video lessons and learn fast.


comments powered by Disqus
↑ Back to top | Tablatures and chords are parodies/interpretations of the original songs. You may use it for private study, scholarship, research or language learning purposes only