» » »

House Of The Rising Sun Bass tabs (ver.2)

Artists:  A B C D E F G H I J K L M N O P Q R S T U V W X Y Z # 

House Of The Rising Sun Bass tabs (ver.2)

Animals
Rating:
4/5 (9 votes)

Hard to play? Try these video lessons and learn fast.
                *I do know that some of what I've put on here is the organ, but it sounds good on 
bass, and is fun to play. Enjoy*

Play this from the very beggining, but play it quietly during the intro
G|----------------|----------------|----------------|----------------|
D|----------------|0-------3-------|----------------|----------------|
A|0-------3-------|----------------|0---------------|0---------------|
E|----------------|----------------|--------0-------|--------0-------|

G|----------------|----------------|----------------|----------------|
D|----------------|0-------3-------|----------------|----------------|
A|0-------3-------|----------------|0-------3-------|----------------|
E|----------------|----------------|----------------|0-------0-------|

G|----------------|----------------|----------------|----------------|
D|----------------|0-------3-------|----------------|----------------|
A|0-------3-------|----------------|0---------------|0-------3-------|
E|----------------|----------------|--------0-------|----------------|

G|----------------|----------------|----------------|
D|--------3-------|----------------|----------------|
A|5---------------|0---------------|0---------------|
E|----------------|--------0-------|--------0-------|

====x2

G|----------------|----------------|----------------|----------------|
D|----------------|0-----x-3-----x-|----------------|---------55-3---|
A|0-----x-3-----x-|----------------|0-----x-3-----x-|-------------5p3|
E|----------------|----------------|----------------|0-----x-0-------|

G|----------------|----------------|----------------|----------------|
D|--------------x-|0-----x-3-------|----------------|----------------|
A|0-----x-3-------|--------------x-|0-------------x-|0-----x-3-----x-|
E|----------------|----------------|------x-0-------|----------------|

G|----------------|----------------|----------------|
D|------x-3-------|----------------|----------------|
A|5-------------x-|0-------------x-|0---------------|
E|----------------|------x-0-------|------x-0-------|

====

G|----------------|----------------|----------------|----------------|
D|----------------|0-------3-------|----------------|----------------|
A|0-------3-------|----------------|0---------------|0---------------|
E|----------------|----------------|--------0-------|--------0-------|

G|----------------|----------------|----------------|----------------|
D|----------------|0--0-0-03-33-333|----------------|----------------|
A|0-----0-3-33-333|----------------|0-00-0003-3-3-33|----------------|
E|----------------|----------------|----------------|000-000-000-000-|

G|----------------|----------------|----------------|----------------|
D|----------------|0xx-0-x-3-xx-3-x|----------------|----------------|
A|0xx-0-x-3-xx-3-x|----------------|0-xx-0-x--------|0-xx-0-x33-0-3-5|
E|----------------|----------------|--------0-xx-0-x|----------------|

G|----------------|----------------|----------------|
D|--------3-xx-3-x|----------------|----------------|
A|5-xx-5-x--------|0-xx-0-x--------|0-xx-0-x--------|
E|----------------|--------0-xx-0-x|--------0-xx-0-x|

====

G|----------------|----------------|----------------|----------------|
D|----------------|0-------3-------|----------------|----------------|
A|0-------3-------|----------------|0---------------|0---------------|
E|----------------|----------------|--------0-------|--------0-------|

G|----------------|----------------|----------------|----------------|
D|----------------|0-------3-------|----------------|---------55-3---|
A|0-------3-------|----------------|0-------3-------|-------------5p3|
E|----------------|----------------|----------------|0-------0-------|

G|----------------|----------------|----------------|----------------|
D|----------------|0-------3-------|----------------|----------------|
A|0-------3-------|----------------|0---------------|0-------3-------|
E|----------------|----------------|--------0-------|----------------|

G|----------------|----------------|----------------|
D|--------3-------|----------------|----------------|
A|5---------------|0-----x---------|0-----x---------|
E|----------------|--------0-------|--------0-------|

====

G|----------------|----------------|----------------|----------------|
D|----------------|0-------3-------|----------------|----------------|
A|0-------3-------|----------------|0---------------|0---------------|
E|----------------|----------------|--------0-------|--------0-------|

G|----------------|----------------|----------------|----------------|
D|----------------|0-------3-------|----------------|----------------|
A|0-------3-------|----------------|0-------3-------|----------------|
E|----------------|----------------|----------------|0-------0-------|

G|----------------|----------------|----------------|----------------|
D|----------------|0-------3-------|----------------|----------------|
A|0-------3-------|----------------|0---------------|0-------3-------|
E|----------------|----------------|--------0-------|----------------|

G|----------------|----------------|----------------|
D|--------3-------|----------------|----------------|
A|5---------------|0---------------|0---------------|
E|----------------|--------0-------|--------0-------|

====x2

G|----------------|   ----------------|----------------|
D|----------------|   753-------------|----------------|
A|0---------------|x3 ----753-753-----|----------------|
E|--------0-------|   ------------753-|0~--------------|
            
Hard to play? Try these video lessons and learn fast. | Correct




comments powered by Disqus
↑ Back to top | Tablatures and chords are parodies/interpretations of the original songs. You may use it for private study, scholarship, research or language learning purposes only