» » »

Animal Liberation Orchestra, Try Tabs (ver.1)

Artists:  A B C D E F G H I J K L M N O P Q R S T U V W X Y Z # 
Rating:
0/5 (0 votes)
Try lessons Tabs too difficult? Try these video lessons and learn fast
                ALO-Try

Verse/Into 


2----2----/----4
2----4----/----6
3----4----/----6
4----4----/----6
4----2----/----4
2----2----/----4

Bridge	That's why she gotta give it
	A little bit of confidence
	And just believe in
	What she do

4----6----4----2----4
6----7----6----4----6
6----8----6----4----6
6----8----6----4----6
4----6----4----2----4
4----6----4----2----4

Chorus	We got to try just a little bit harder
				
2----2
2----4
3----4
4----4
4----2
2----2

And let it shine just a little bit brighter

2----4
2----6
3----6
4----6
4----4
2----4

We got to walk just a little bit taller

2----2
2----4
3----4
4----4
4----2
2----2




Cause I can feel the sound and it's bringing me down

2----2----2----2
4----3----4----3
4----4----4----3
4----4----4----4
2----2----2----2
2----2----2----2
            

comments powered by Disqus
↑ Back to top | Animal Liberation Orchestra Tabs for Try. Lyrics for acoustic guitar and electric guitar. Tablatures and chords are parodies/interpretations of the original songs. You may use it for private study, scholarship, research or language learning purposes only