» » »

Animal Liberation Orchestra, Stereo Crickets Tabs (ver.1)

Artists:  A B C D E F G H I J K L M N O P Q R S T U V W X Y Z # 

Stereo Crickets Tabs (ver.1)

Animal Liberation Orchestra Tabs
 Rating:
4/5 (4 votes)
Stereo Crickets lessons Tabs too difficult? Try these video lessons and learn fast
1
                ALO

Guitar Part:
e------------------------------------------------------------|
G------------------------------------------------------------|
B-----------------------------------------------------------o|
D-----------------------------------------------------------o|
A----\7-7-5h7p5---5-5-3----3-------------\7-7-----5-5---3----|
E-1~---------------------5---5p3------1~---------------------|
  F    E          D    C              F   E E     D D   C

Piano Part:
e------------------------------------------------------------|
G------13----------------------------13---13h15~p13----------|
B-12h14---14-12----------------12h14---12-------------12-12-o|
D-------------------12-10-----------------------------12-10-o|
A------------------------------------------------------------|
E------------------------------------------------------------|

Guitar Fill:
e----------------------------------------------------------------------------|
G--12h14p12---------------------------------12h14p12-------------------------|
B----------12h14p10----------------12-12------------12h14p10-----------------|
D-----------------------10-10-12/14------------------------------10-12/14-10-|
A------------------10h12------------------------------------10h12------------|
E----------------------------------------------------------------------------|

           F                    E                  D            C
Well its times like these that make me think that clarity is a rareity
              F                             E
but since im feeling it now i'll set the record straight
D                  C
nothing to fear, no body to hate
  F                    E                  D              C
Rerpessed emotions moving down my spine, dating back, to cave men times
    F                   E
So what do you do with all that fear
          D                C
well you start a fight and point a finger


Last night i heard a symphony
stereo crickets, beautifully
chirping away the summer heat
easing my soul and singing sweet
songs of forgivness
for my parents and big buisiness
nobody intentionally did me wrong
i hear, in the crickets song
            
Submit corrections

comments powered by Disqus
↑ Back to top | Animal Liberation Orchestra Tabs for Stereo Crickets. Lyrics for acoustic guitar and electric guitar. 1 Tablatures and chords are parodies/interpretations of the original songs. You may use it for private study, scholarship, research or language learning purposes only