» » »

Animal Liberation Orchestra, Brother Be Strong Tabs (ver.1)

Artists:  A B C D E F G H I J K L M N O P Q R S T U V W X Y Z # 

Brother Be Strong Tabs (ver.1)

Animal Liberation Orchestra Tabs
 Rating:
4/5 (4 votes)
Brother Be Strong lessons Tabs too difficult? Try these video lessons and learn fast
1
                Intro, Main Riff x 1
e-------5---3-5---5-5---5----5---3-2~-3---------5----3-2~-3--------5--3-4-5~-|
B-------5---3-5---7-7---5----5---3-2~-3---------5----3-2~-3--------5--3-4-5~-|
G----5h6----4-6---7-7---6-5h6----4-2~-4------5h6-----4-2~-4-----5h6---4-5-6~-|
D--7--------5-7---7-7---7--------5-4~-5----7---------5-4~-5---7-------5-6-7~-|
A-----------------5-5--------------------------------------------------------|
E----------------------------------------------------------------------------|
    A       G A  (D(D)  A        G F#m G   A         G F#m G  A       G G# A

A  G       A        DD
Be Strong Son.......
A    G           F#m        G
Be strong for your own protection
A       G           F#m       G
Project yourself out in every direction
A                G G# A
You got to Be Strong Son

All Verses are indentical

Bridge:

e---8-----8--8---7--5~--|
B---8-----8--8---7--5~--|
G---9-----9--9---8--6~--|
D--10----10-10---9--7~--|
A-----------------------|
E-----------------------|

Chorus and La La's just A G E

e|----5----5-5---3--0~----|
B|----5----5-5---3--0~----|
G|o---6----6-6---4--1~---o|
D|o---7----7-7---5--2~---o|
A|----7----7-7---5--2~----|
E|----5----5-5---3--0~----|

-Avrraf
            
Submit corrections

comments powered by Disqus
↑ Back to top | Animal Liberation Orchestra Tabs for Brother Be Strong. Lyrics for acoustic guitar and electric guitar. 1 Tablatures and chords are parodies/interpretations of the original songs. You may use it for private study, scholarship, research or language learning purposes only