» » »

Animal Collective, Sweet Road Tabs (ver.1)

Artists:  A B C D E F G H I J K L M N O P Q R S T U V W X Y Z # 

Sweet Road Tabs (ver.1)

Animal Collective Tabs
 Rating:
4/5 (6 votes)
Sweet Road lessons Tabs too difficult? Try these video lessons and learn fast
                Animal Collective
Sung Tongs

Standard Tuning: E A D G B E


Intro:

e|----0------0-------0-----2--2------------|
b|--3------3-------2-----2--2--2-----------|
g|-4------1-------2------------------------|
d|-----------------------------------------|
a|-----------------------------------------|
E|-----------------------------------------|

Chorus:  it started like a stone....

Guitar 1

e|----0------0-------0-----2--2------------|
b|--3------3-------2-----2--2--2-----------|
g|-4------1-------2------------------------|
d|-----------------------------------------|
a|-----------------------------------------|
E|-----------------------------------------|

Guitar 2

e|-----------------------------------------|
b|-----------------------------------------|
g|-----------------------------------------|
d|-----------------------------------------|
a|-11-11---------9-9-----------------------|
E|--------10-10-------12-12-12-------------|


Verse: i'm tainted in a patchy problem...

Guitar 1

e|--7-7-7-7-7-7--0-0-0-0-0-0-0-------------|
b|--3-3-3-3-3-3--5-5-5-5-5-5-5-------------|
g|--4-4-4-4-4-4--4-4-4-4-4-4-4-------------|
d|---------------6-6-6-6-6-6-6-------------|
a|-----------------------------------------|
E|-----------------------------------------|

e|-----------------------------------------|
b|-----------------------------------------|
g|-----------------------------------------|
d|-9-9-9-9-9-9-----------------------------|
a|-------------7-7-7-7-7-7-----------------|
E|-----------------------------------------|




Bridge:  ahheyoo! I found SWEET ROAD!   ahheyoo! I found SWEET ROAD!  


e|---0--------------------------------------|
b|---5--------------------------------------|
g|---4--------------------------------------|
d|---6--------------------------------------|
a|---7--------------------------------------|
E|---x--------------------------------------|

strum


Ends on 

e|--------0-----------------------------------|
b|--------2-----------------------------------|
g|--------2-----------------------------------|
d|-------------------------------------------|
a|-------------------------------------------|
E|-------------------------------------------|


Lyrics:


wee, ~laughter~
hurry up, no
hurry up, huh

it started like a stone
i grew it out but then i rested it
i found sweet road
it came announced on the right
i left my purse then found the road

i'm tainted in a patchy problem
none can tell what i can tell ya
let them eagles have good times
it's a road and not a soda

i found sweet road,
i found sweet road

it started like a stone
i grew it out but then i rested it
i found sweet road
it came out of us on the right
i left my purse then found the road     
            
Submit corrections

comments powered by Disqus
↑ Back to top | Animal Collective Tabs for Sweet Road. Lyrics for acoustic guitar and electric guitar. Tablatures and chords are parodies/interpretations of the original songs. You may use it for private study, scholarship, research or language learning purposes only