>
 >
Leaf House

Leaf House Guitar Tabs

Animal Collective - Leaf House chords, tabs, tablatures, lyrics

Guitar lessons | Add/correct | Request | Top 50 tabs Artists:  A B C D E F G H I J K L M N O P Q R S T U V W X Y Z 0-9

Leaf House Guitar Tabs – Animal Collective

CD, Sheet music, Poster

Do you like Leaf House? Share with your friends now
TabsTabs v2
Leaf house by Animal collective

note:the rythme is important in this song, it takes a while to be confortable with 
it works much better in the woods! Meow!

chords:

e|---|
B|-8-| Em7
G|-7-|
D|-5-|
A|-7-|

E|-7-|
B|-7-|
G|-7-| Bm7
D|-7-|
A|-9-|
E|-7-|


e|-5-|
B|-5-|
G|-5-| Am7
D|-5-|
A|-7-|
E|-5-|


Intro
e|----------------------|
B|--8---8---8-8---8---8-|
G|--7---7---7-7---7---7-|
D|----------------------|
A|-7---7-----7---7------|
E|----------------------|


This house is sad...
e|----------------------|
B|--8---8---8-8---8---8-|
G|--7---7---7-7---7---7-|
D|----------------------|
A|-7---7-----7---7------|
E|----------------------|


  because he's not...
e|------------------------|
B|------------------------|
G|--7---7---7-7---7---7---|
D|--7---7---7-7---7---7---|
A|------------------------|
E|-7---7-----7---7--------|

  tiiiiiii......
e|----------------------|
B|----------------------|
G|--5---5---5-5---5---5-|
D|--5---5---5-5---5---5-|
A|----------------------|
E|-5---5-----5---5------|

  deee......
e|------------------------|
B|--8---8---8-8---8---8---|
G|--7---7---7-7---7---7---|
D|------------------------|
A|-7---7-----7---7--------|
E|------------------------|

  there's no one......
e|--------------------------------------------------------|
B|--------------------------------------------------------|
G|--------------------------------------------------------|
D|-----------------------------5-5-5-5-5-5---7-7-7-7-7-7--|
A|-5-5-5-5-5-5---7-7-7-7-7-7---3-3-3-3-3-3---5-5-5-5-5-5--|
E|-3-3-3-3-3-3---5-5-5-5-5-5------------------------------|
   (G)           (A)           (C)           (D)

  Miaw......
e|-3------|
B|-0------|
G|-0------|
D|-0------|
A|-2------|
E|-3------|
    (G)

This house is sad
Because he’s not
tidy (sorry? inside?)

Good dogs go by (Where does he hide?)
When someone comes,
To go gone, gone, gone. . .

There’s no one, there’s no one,
There's no one, no one  x2

To say meow, kitties,
Meow, kitties..





Comments


Popular Animal Collective tabs & chords
Amanita Chords
Chocolate Girl Chords
Doggy 1 Chords
Todays Supernatural 2 Chords
Winter's Love 2 Chords
Summertime Clothes Tabs
Ive Got Mine Ukulele
Peacebone Ukulele
Purple Bottle Ukulele
We Tigers Ukulele


Song lyrics



↑ Back to top | Tablatures and chords are parodies/interpretations of the original songs. You may use it for private study, scholarship, research or language learning purposes only
© 2014 AZChords.com Contact us | Privacy policy | DMCA | Add/correct tabs | Request tabs | Top 50 tabs