» » »

Good Lovin' Outside Tabs (ver.1)

Artists:  A B C D E F G H I J K L M N O P Q R S T U V W X Y Z # 

Good Lovin' Outside Tabs (ver.1)

Animal Collective
Rating:
0/5 (0 votes)

Hard to play? Try these video lessons and learn fast.
                this is an amazing song.

enough said.





    Thers a place i know where we can goo
E||-0-----0-0-----0------0-----0--0---0---|
B||-2-----2-2-----2------2-----2--2---0---|
G||-1-----1-1-----1------1-----1--1---1---|
D||-2-----2-2-----2------2-----2--2---2---|
A||-0-----0-0-----0------0-----0--0---2---|
E||-----------------------------------0---|


    Slide on down the wooden staircase
E||-0-----0--0----0---0--0---0----0-----0-|
B||-0-----0--0----0---0--0---0----0-----0-|
G||-4-----4--4----4---4--4---4----4-----1-|
D||-4-----4--4----4---4--4---4----4-----2-|
A||-2-----2--2----2---2--2---2----2-----2-|
E||-------------------------------------0-|


    Get up and outside        lets
E||-0-0-0-0-0-0-0-0-0-0-0-0-0-0-0-|
B||-0-0-0-0-0-0-0-0-0-0-0-0-0-0-0-|
G||-1-1-1-1-1-1-1-4/6\4/6\4/6\4/6-|
D||-2-2-2-2-2-2-2-4/6\4/6\4/6\4/6-|
A||-2-2-2-2-2-2-2-2/4\2/4\2/4\2/4-|
E||-0-0-0-0-0-0-0-0-0-0-0-0-0-0-0-|

repeat through the rest of the song
            
Hard to play? Try these video lessons and learn fast. | Correct




comments powered by Disqus
↑ Back to top | Tablatures and chords are parodies/interpretations of the original songs. You may use it for private study, scholarship, research or language learning purposes only