>
 >
For Reverend Green

For Reverend Green Bass Tabs

Animal Collective - For Reverend Green chords, tabs, tablatures, lyrics

Guitar lessons | Add/correct | Request | Top 50 tabs Artists:  A B C D E F G H I J K L M N O P Q R S T U V W X Y Z 0-9

For Reverend Green Bass Tabs – Animal Collective

CD, Sheet music, Poster

Do you like For Reverend Green? Share with your friends now
Bass TabsChordsUkulele
                             For Reverend Green                               


                                                             Animal Collective
Bass



                       ^                                  
                       S S S S S S S S S S S S S S S S  8x
G||-------|-------||---6-6-6-6-6-6-6-6-6-6-6-6-6-6-6-6--||
D||-------|-------||*--7-7-7-7-7-7-7-7-7-7-7-7-7-7-7-7-*||
A||-------|-------||*--0-0-0-0-0-0-0-0-0-0-0-0-0-0-0-0-*||
E||-------|-------||------------------------------------||


   ^                               ^                                         
   S S S S S S S S S S S S S S     S  S  S  S  S  S  S  S  S  S  S  S  S  S  
---6-6-6-6-6-6-6-6-6-6-6-6-6-6-|---9--9--9--9--9--9--9--9--9--9--9--9--9--9-|
*--7-7-7-7-7-7-7-7-7-7-7-7-7-7-|--11-11-11-11-11-11-11-11-11-11-11-11-11-11-|
*--0-0-0-0-0-0-0-0-0-0-0-0-0-0-|---0--0--0--0--0--0--0--0--0--0--0--0--0--0-|
-------------------------------|--------------------------------------------|


  ^                               ^                                           
  S S S S S S S S S S S S S S     S  S  S  S  S  S  S  S  S  S  S  S  S  S  6x
--7-7-7-7-7-7-7-7-7-7-7-7-7-7-|--13-13-13-13-13-13-13-13-13-13-13-13-13-13--||
--9-9-9-9-9-9-9-9-9-9-9-9-9-9-|--14-14-14-14-14-14-14-14-14-14-14-14-14-14-*||
--0-0-0-0-0-0-0-0-0-0-0-0-0-0-|---0--0--0--0--0--0--0--0--0--0--0--0--0--0-*||
------------------------------|---------------------------------------------||


   ^                                 ^                              
   S S S S S S S S S S S S S S 12x   S S S S S S S S S S S S S S  4x
---6-6-6-6-6-6-6-6-6-6-6-6-6-6--||---9-9-9-9-9-9-9-9-9-9-9-9-9-9--||
*--7-7-7-7-7-7-7-7-7-7-7-7-7-7-*||*--6-6-6-6-6-6-6-6-6-6-6-6-6-6-*||
*--0-0-0-0-0-0-0-0-0-0-0-0-0-0-*||*--7-7-7-7-7-7-7-7-7-7-7-7-7-7-*||
--------------------------------||---0-0-0-0-0-0-0-0-0-0-0-0-0-0--||


   ^                                 ^                            
   S S S S S S S S S S S S S S  4x   S S S S S S S S S S S S S S  
---6-6-6-6-6-6-6-6-6-6-6-6-6-6--||---6-6-6-6-6-6-6-6-6-6-6-6-6-6-|
*--7-7-7-7-7-7-7-7-7-7-7-7-7-7-*||*--7-7-7-7-7-7-7-7-7-7-7-7-7-7-|
*--0-0-0-0-0-0-0-0-0-0-0-0-0-0-*||*--0-0-0-0-0-0-0-0-0-0-0-0-0-0-|
--------------------------------||-------------------------------|


   ^                                           ^                            
   S  S  S  S  S  S  S  S  S  S  S  S  S  S    S S S S S S S S S S S S S S  
---9--9--9--9--9--9--9--9--9--9--9--9--9--9-|--7-7-7-7-7-7-7-7-7-7-7-7-7-7-|
--11-11-11-11-11-11-11-11-11-11-11-11-11-11-|--9-9-9-9-9-9-9-9-9-9-9-9-9-9-|
---0--0--0--0--0--0--0--0--0--0--0--0--0--0-|--0-0-0-0-0-0-0-0-0-0-0-0-0-0-|
--------------------------------------------|------------------------------|


   ^                                           
   S  S  S  S  S  S  S  S  S  S  S  S  S  S  4x
--13-13-13-13-13-13-13-13-13-13-13-13-13-13--||
--14-14-14-14-14-14-14-14-14-14-14-14-14-14-*||
---0--0--0--0--0--0--0--0--0--0--0--0--0--0-*||
---------------------------------------------||


   ^                                 ^                              
   S S S S S S S S S S S S S S 12x   S S S S S S S S S S S S S S  4x
---6-6-6-6-6-6-6-6-6-6-6-6-6-6--||---9-9-9-9-9-9-9-9-9-9-9-9-9-9--||
*--7-7-7-7-7-7-7-7-7-7-7-7-7-7-*||*--6-6-6-6-6-6-6-6-6-6-6-6-6-6-*||
*--0-0-0-0-0-0-0-0-0-0-0-0-0-0-*||*--7-7-7-7-7-7-7-7-7-7-7-7-7-7-*||
--------------------------------||---0-0-0-0-0-0-0-0-0-0-0-0-0-0--||


   ^                                  ^                                  
   S S S S S S S S S S S S S S S S    S S S S S S S S S S S S S S S S  6x
---9-9-9-9-9-9-9-9-9-9-9-9-9-9-9-9-|--6-6-6-6-6-6-6-6-6-6-6-6-6-6-6-6--||
*--6-6-6-6-6-6-6-6-6-6-6-6-6-6-6-6-|--7-7-7-7-7-7-7-7-7-7-7-7-7-7-7-7-*||
*--7-7-7-7-7-7-7-7-7-7-7-7-7-7-7-7-|--0-0-0-0-0-0-0-0-0-0-0-0-0-0-0-0-*||
---0-0-0-0-0-0-0-0-0-0-0-0-0-0-0-0-|--0-0-0-0-0-0-0-0-0-0-0-0-0-0-0-0--||


   ^                                                  
   S S S S S S S S S S S S S S 20x  H.           E    
---6-6-6-6-6-6-6-6-6-6-6-6-6-6--||--6---------------||
*--7-7-7-7-7-7-7-7-7-7-7-7-7-7-*||--7---------------||
*--0-0-0-0-0-0-0-0-0-0-0-0-0-0-*||--0---------------||
---0-0-0-0-0-0-0-0-0-0-0-0-0-0--||--0---------------||




Duration Legend
---------------
W - whole
H - half
Q - quarter
E - 8th
S - 16th
T - 32nd
X - 64th
. - note dotted
|-n-|  - n-tuplets


Tablature Legend
----------------
L - tied note
x - dead note
g - grace note
(n) - ghost note
> - accentuded note
NH - natural harmonic
AH - artificial harmonic
TH - tapped harmonic
SH - semi harmonic
PH - pitch harmonic
h - hammer on
p - pull off
b - bend
br - bendRelease
pb - preBend
pbr - preBendRelease
brb - bendReleaseBend
\n/ - tremolo bar dip
\n - tremolo bar dive
-/n - tremolo bar Release up
/n\ - tremolo bar inverted dip
/n - tremolo bar return
-\n - tremolo bar Release down
S - shift slide
s - legato slide
/ -  slide into from below or out of upwards
\ -  slide into from above or out of downwards
~ - vibrato
W - wide vibrato
tr - trill
TP - tremolo picking
T - tapping
S - slap
P - pop
< - fade in
^ - brush up
v - brush down





Comments


Popular Animal Collective tabs & chords
Bluish Chords
Chocolate Girl Chords
Graze Chords
Leaf House 1 Tabs
Bluish Ukulele
Flesh Canoe Ukulele
Ive Got Mine Ukulele
Loch Raven Ukulele
Peacebone Ukulele
Wide Eyed Ukulele


Song lyrics



↑ Back to top | Tablatures and chords are parodies/interpretations of the original songs. You may use it for private study, scholarship, research or language learning purposes only
© 2014 AZChords.com Contact us | Privacy policy | DMCA | Add/correct tabs | Request tabs | Top 50 tabs