>
 >
Spread Your Fire

Spread Your Fire Guitar Tabs

Angra - Spread Your Fire chords, tabs, tablatures, lyrics

Guitar lessons | Add/correct | Request | Top 50 tabs Artists:  A B C D E F G H I J K L M N O P Q R S T U V W X Y Z 0-9

Spread Your Fire Guitar Tabs – Angra

CD, Sheet music, Poster

Do you like Spread Your Fire? Share with your friends now
Tabs
Spread Your Fire                                  



Kiko Loureiro Guitar
                                                                 
E||------------------------------|------------------------------|
B||------------------------------|------------------------------|
G||------------------------------|--5----------5--4------2------|
D||--7----------7--6------7------|--2----------2--2------2------|
A||--5--5-5-5-5-5--5--5-5-5--5-5-|-----0-0-0-0-------0-0----0-0-|
E||------------------------------|------------------------------|


                                                             
------------------------------|-----------------------------|
------------------------------|-----------------------------|
--2----------2--1------2------|-----------------------------|
--3--3-3-3-3-3--3--3-3-3--3-3-|--5----------5--5--5------5--|
------------------------------|--3--3-3-3-3-3--5--2--2-2-2--|
------------------------------|-----------------------------|


                                                              
------------------------------|------------------------------|
------------------------------|------------------------------|
------------------------------|--5----------5--4------2------|
--7----------7--6------7------|--2----------2--2------2------|
--5--5-5-5-5-5--5--5-5-5--5-5-|-----0-0-0-0-------0-0----0-0-|
------------------------------|------------------------------|


                                                                               
---------------------------|---------------------------|----------------------|
---------------------------|---------------------------|----------------------|
---------------------------|---------------------------|----------------17----|
------------------5--------|------------------2--------|--17------------------|
------------------5--------|------------------2--------|----------------------|
--3-3-3-3-3-3-3-3-3--------|--0-0-0-0-0-0-0-0-0--------|----------------------|


                                                                         
----------------------|--------------------------|----------------------|
------------15--------|--17----------------------|----------------------|
--16------------------|--------------16----17----|--16--------14--------|
----------------------|--------17----------------|----------------------|
----------------------|--------------------------|----------------------|
----------------------|--------------------------|----------------------|


                                                 
---------------------10-12-13-15-12-13-15-17-13-|
------------10-12-13----------------------------|
---------10-------------------------------------|
--7-9-10----------------------------------------|
------------------------------------------------|
------------------------------------------------|


                                                                          
--15-17-19-15-17-19-20-19-17----------------------|----------------------|
-----------------------------20-18-17-------------|----------------------|
--------------------------------------19-17-16----|----------------17----|
-----------------------------------------------19-|--17------------------|
--------------------------------------------------|----------------------|
--------------------------------------------------|----------------------|


                                                                         
----------------------|--------------------------|----------------------|
------------15--------|--17----------------------|----------------------|
--16------------------|--------------16----17----|--16--------14--------|
----------------------|--------17----------------|----------------------|
----------------------|--------------------------|----------------------|
----------------------|--------------------------|----------------------|


                                                   
--------------15-17-19-15-17p15----------15-17----|
-----------17-------------------18-17-18-------18-|
--14-16-17----------------------------------------|
--------------------------------------------------|
--------------------------------------------------|
--------------------------------------------------|


                                                                        
--19-17-15----15-17-19-15-20-19-17----17-19-20-17-|--25----------------|
-----------18----------------------20-------------|--------------------|
--------------------------------------------------|--------------------|
--------------------------------------------------|--------------------|
--------------------------------------------------|--------------------|
--------------------------------------------------|--------------------|


                                                 
--25p24p22--------------------------------------|
-----------25p24p22-----------------------------|
--------------------24p22p21----------21--------|
-----------------------------24p22p21-----------|
------------------------------------------------|
------------------------------------------------|


                                                                   
----------------------------------|-------------------------------|
----------------------------------|-------------------------------|
--10----------10----------10------|--9----------9----------9------|
--7-----------7-----------7-------|--7----------7----------7------|
--5---5-5-5-5-5---5-5-5-5-5---5-5-|--5--5-5-5-5-5--5-5-5-5-5--5-5-|
----------------------------------|-------------------------------|


                                                                   
----------------------------------|-------------------------------|
----------------------------------|-------------------------------|
--10----------10----------10------|--9----------9----------9------|
--7-----------7-----------7-------|--7----------7----------7------|
--5---5-5-5-5-5---5-5-5-5-5---5-5-|--4--4-4-4-4-4--4-4-4-4-4--4-4-|
----------------------------------|-------------------------------|


                                                  
------------------------|------------------------|
------------------------|------------------------|
--3----------3----------|------------------------|
--3----------3----------|--5----------5----------|
--1--1-1-1-1-1----------|--5----------5----------|
------------------------|--3--3-3-3-3-3----------|


                                                                   
----------------------------------|-------------------------------|
----------------------------------|-------------------------------|
--10----------10----------10------|--9----------9----------9------|
--7-----------7-----------7-------|--7----------7----------7------|
--5---5-5-5-5-5---5-5-5-5-5---5-5-|--5--5-5-5-5-5--5-5-5-5-5--5-5-|
----------------------------------|-------------------------------|


                                                                   
----------------------------------|-------------------------------|
----------------------------------|-------------------------------|
--10----------10----------10------|--9----------9----------9------|
--7-----------7-----------7-------|--7----------7----------7------|
--5---5-5-5-5-5---5-5-5-5-5---5-5-|--4--4-4-4-4-4--4-4-4-4-4--4-4-|
----------------------------------|-------------------------------|


                                                                
-------------------------------|-------------------------------|
-------------------------------|-------------------------------|
-------------------------------|-------------------------------|
--3----------3----------3------|--3----------3----------3------|
--1--1-1-1-1-1--1-1-1-1-1--1-1-|--1--1-1-1-1-1--1-1-1-1-1--1-1-|
-------------------------------|-------------------------------|


                                                                           
----------------------------------|-------------------|-------------------|
----------------------------------|-------------------|-------------------|
----------------------------------|--5----------------|-------------------|
----------------------------------|--5----------------|--3----------------|
----------------------------------|--3----------------|--3----------------|
--3-3-3-3-3-3-3-3-3-3-3-3-3-3-3-3-|-------------------|--1----------------|


                                                            
-------------------|-------------------|-------------------|
-------------------|-------------------|-------------------|
--5----------------|--7----------------|--2----------------|
--5----------------|--7----------------|--2----------------|
--3----------------|--5----------------|--0----------------|
-------------------|-------------------|-------------------|


                                                                              
----------------------------|----------------------------|-------------------|
----------------------------|----------------------------|-------------------|
----------------------------|----------3------------2----|-------------------|
--3------3--3--3------3--3--|----------3------------2----|--5----------------|
--1--1-1-1--1--1--1-1-1--1--|--1-1-1-1-1----0-0-0-0-0----|--5----------------|
----------------------------|----------------------------|--3----------------|


                                                                                
-------------------|-------------------|-------------------|-------------------|
-------------------|-------------------|-------------------|-------------------|
--5----------------|-------------------|--5----------------|--6----------------|
--5----------------|--3----------------|--5----------------|--7----------------|
--3----------------|--3----------------|--3----------------|--4----------------|
-------------------|--1----------------|-------------------|-------------------|


                                                                    
--------------------|-------------------|--------------------------|
--------------------|-------------------|--------------------------|
--7--------5--------|--3----------------|--7----7----7----6--------|
--7--------5--------|--3----------------|--7----7----7----7--------|
--5--------3--------|--1----------------|--5----5----5----4--------|
--------------------|-------------------|--------------------------|


                                                              
------------------------------|------------------------------|
------------------------------|------------------------------|
------------------------------|--5----------5--4------2------|
--7----------7--6------7------|--2----------2--2------2------|
--5--5-5-5-5-5--5--5-5-5--5-5-|-----0-0-0-0-------0-0----0-0-|
------------------------------|------------------------------|


                                                             
------------------------------|-----------------------------|
------------------------------|-----------------------------|
--2----------2--1------2------|-----------------------------|
--3--3-3-3-3-3--3--3-3-3--3-3-|--5----------5--5--5------5--|
------------------------------|--3--3-3-3-3-3--5--2--2-2-2--|
------------------------------|-----------------------------|


                                                              
------------------------------|------------------------------|
------------------------------|------------------------------|
------------------------------|--5----------5--4------2------|
--7----------7--6------7------|--2----------2--2------2------|
--5--5-5-5-5-5--5--5-5-5--5-5-|-----0-0-0-0-------0-0----0-0-|
------------------------------|------------------------------|


                                                        
------------------------|------------------------------|
------------------------|------------------------------|
------------------------|--3----------3------5------5--|
--5----------5----------|--3----------3------5------5--|
--5----------5----------|--1--1-1-1-1-1--3-3-3--3-3-3--|
--3--3-3-3-3-3----------|------------------------------|


                                                                   
----------------------------------|-------------------------------|
----------------------------------|-------------------------------|
--10----------10----------10------|--9----------9----------9------|
--7-----------7-----------7-------|--7----------7----------7------|
--5---5-5-5-5-5---5-5-5-5-5---5-5-|--5--5-5-5-5-5--5-5-5-5-5--5-5-|
----------------------------------|-------------------------------|


                                                                   
----------------------------------|-------------------------------|
----------------------------------|-------------------------------|
--10----------10----------10------|--9----------9----------9------|
--7-----------7-----------7-------|--7----------7----------7------|
--5---5-5-5-5-5---5-5-5-5-5---5-5-|--4--4-4-4-4-4--4-4-4-4-4--4-4-|
----------------------------------|-------------------------------|


                                                  
------------------------|------------------------|
------------------------|------------------------|
--3----------3----------|------------------------|
--3----------3----------|--5----------5----------|
--1--1-1-1-1-1----------|--5----------5----------|
------------------------|--3--3-3-3-3-3----------|


                                                                   
----------------------------------|-------------------------------|
----------------------------------|-------------------------------|
--10----------10----------10------|--9----------9----------9------|
--7-----------7-----------7-------|--7----------7----------7------|
--5---5-5-5-5-5---5-5-5-5-5---5-5-|--5--5-5-5-5-5--5-5-5-5-5--5-5-|
----------------------------------|-------------------------------|


                                                                   
----------------------------------|-------------------------------|
----------------------------------|-------------------------------|
--10----------10----------10------|--9----------9----------9------|
--7-----------7-----------7-------|--7----------7----------7------|
--5---5-5-5-5-5---5-5-5-5-5---5-5-|--4--4-4-4-4-4--4-4-4-4-4--4-4-|
----------------------------------|-------------------------------|


                                                                
-------------------------------|-------------------------------|
-------------------------------|-------------------------------|
-------------------------------|-------------------------------|
--3----------3----------3------|--3----------3----------3------|
--1--1-1-1-1-1--1-1-1-1-1--1-1-|--1--1-1-1-1-1--1-1-1-1-1--1-1-|
-------------------------------|-------------------------------|


                                                                           
----------------------------------|-------------------|-------------------|
----------------------------------|-------------------|-------------------|
----------------------------------|--5----------------|-------------------|
----------------------------------|--5----------------|--3----------------|
----------------------------------|--3----------------|--3----------------|
--3-3-3-3-3-3-3-3-3-3-3-3-3-3-3-3-|-------------------|--1----------------|


                                                            
-------------------|-------------------|-------------------|
-------------------|-------------------|-------------------|
--5----------------|--7----------------|--2----------------|
--5----------------|--7----------------|--2----------------|
--3----------------|--5----------------|--0----------------|
-------------------|-------------------|-------------------|


                                                                              
----------------------------|----------------------------|-------------------|
----------------------------|----------------------------|-------------------|
----------------------------|----------3------------2----|-------------------|
--3------3--3--3------3--3--|----------3------------2----|--5----------------|
--1--1-1-1--1--1--1-1-1--1--|--1-1-1-1-1----0-0-0-0-0----|--5----------------|
----------------------------|----------------------------|--3----------------|


                                                                                
-------------------|-------------------|-------------------|-------------------|
-------------------|-------------------|-------------------|-------------------|
--5----------------|-------------------|--5----------------|--6----------------|
--5----------------|--3----------------|--5----------------|--7----------------|
--3----------------|--3----------------|--3----------------|--4----------------|
-------------------|--1----------------|-------------------|-------------------|


                                                             
--------------------|-------------------|-------------------|
--------------------|-------------------|--3----------------|
--7--------5--------|--3----------------|--4----------------|
--7--------5--------|--3----------------|--3----------------|
--5--------3--------|--1----------------|--2----------------|
--------------------|-------------------|-------------------|


                                                                   
-------------------|-------------------|--------------------------|
-------------------|-------------------|--------------------------|
--9----------------|--9----------------|-----7-----5-----4-----5--|
--9----------------|--9----------------|--------------------------|
--7----------------|--7----------------|--0-----0-----0-----0-----|
--0----------------|--0----------------|--------------------------|


                                                      
--------------------------|--------------------------|
-----------5-----6-----8--|-----7-----5-----7-----8--|
-----7--------------------|--------------------------|
--------------------------|--4-----4-----4-----4-----|
--3-----3-----3-----3-----|--------------------------|
--------------------------|--------------------------|


                                                       
---------------------------|--------------------------|
-----10-----8-----7-----5--|--------------------------|
---------------------------|-----7-----5-----4-----5--|
--5------5-----5-----5-----|--------------------------|
---------------------------|--0-----0-----0-----0-----|
---------------------------|--------------------------|


                                                      
--------------------------|--------------------------|
-----------5-----6-----8--|-----7-----5-----7-----8--|
-----7--------------------|--------------------------|
--------------------------|--4-----4-----4-----4-----|
--3-----3-----3-----3-----|--------------------------|
--------------------------|--------------------------|


                                                      
-----5-----3--------------|--------------------------|
-----------------7-----5--|--------------------------|
--------------------------|-----7-----5-----4-----5--|
--3-----3-----3-----3-----|--------------------------|
--------------------------|--0-----0-----0-----0-----|
--------------------------|--------------------------|


                                                      
--------------------------|--------------------------|
-----------5-----6-----8--|-----7-----5-----7-----8--|
-----7--------------------|--------------------------|
--------------------------|--4-----4-----4-----4-----|
--3-----3-----3-----3-----|--------------------------|
--------------------------|--------------------------|


                                                       
---------------------------|--------------------------|
-----10-----8-----7-----5--|--------------------------|
---------------------------|-----7-----5-----4-----5--|
--5------5-----5-----5-----|--------------------------|
---------------------------|--0-----0-----0-----0-----|
---------------------------|--------------------------|


                                                      
--------------------------|--------------------------|
-----------5-----6-----8--|-----7-----5-----7-----8--|
-----7--------------------|--------------------------|
--------------------------|--4-----4-----4-----4-----|
--3-----3-----3-----3-----|--------------------------|
--------------------------|--------------------------|


                                                      
-----5-----3------------------|----------------------|
------------------------------|----------------------|
------------------------------|----------------------|
--3-----3---------------------|--2----2----2----2----|
------------------------------|--2----2----2----2----|
--------------1-1-1-1-1-1-1-1-|--0----0----0----0----|


                                                                          
------------------------------------|------------------------------------|
------------------------------------|------------------------------------|
------------------------------------|------------------------------------|
------------------------------------|------------------------------------|
------------------2h3p2---2---------|------------------2h3p2---2---------|
--0-0-0-0-0-0-0-0-------5---5-3-2-0-|--0-0-0-0-0-0-0-0-------5---5-3-2-0-|


                                                                          
------------------------------------|------------------------------------|
------------------------------------|------------------------------------|
------------------------------------|------------------------------------|
------------------------------------|------------------------------------|
------------------2h3p2---2---------|------------------2h3p2---2---------|
--3-3-3-3-3-3-3-3-------5---5-3-2-0-|--3-3-3-3-3-3-3-3-------5---5-3-2-0-|


                                                                          
------------------------------------|------------------------------------|
------------------------------------|------------------------------------|
------------------------------------|------------------------------------|
------------------1h2p1---1---------|------------------1h2p1---1---------|
--2-2-2-2-2-2-2-2-------3---3-2-0---|--2-2-2-2-2-2-2-2-------3---3-2-0---|
----------------------------------3-|----------------------------------3-|


                                                                      
----------------------------------|----------------------------------|
--------------------------4-5-4-5-|--7-8-7-8-4-5-4-5-----------------|
------------------4-5-4-5---------|------------------4-5-4-5---------|
----------4-5-4-5-----------------|--------------------------4-5-4-5-|
--6-7-6-7-------------------------|----------------------------------|
----------------------------------|----------------------------------|


                                                                          
------------------------------------|------------------------------------|
------------------------------------|------------------------------------|
------------------------------------|------------------------------------|
------------------------------------|------------------------------------|
------------------5h7p5---5---------|------------------5h7p5---5---------|
--3-3-3-3-3-3-3-3-------8---8-7-5-3-|--3-3-3-3-3-3-3-3-------8---8-7-5-3-|


                                                                          
------------------------------------|------------------------------------|
------------------------------------|------------------------------------|
------------------------------------|------------------------------------|
------------------------------------|------------------------------------|
------------------5h7p5---5---------|------------------5h7p5---5---------|
--7-7-7-7-7-7-7-7-------8---8-7-5-3-|--7-7-7-7-7-7-7-7-------8---8-7-5-3-|


                                                                          
------------------------------------|------------------------------------|
------------------------------------|------------------------------------|
------------------------------------|------------------------------------|
------------------4h5p4---4---------|------------------4h5p4---4---------|
--6-6-6-6-6-6-6-6-------7---7-6-3-2-|--6-6-6-6-6-6-6-6-------7---7-6-3-2-|
------------------------------------|------------------------------------|


                                                                  
----------------------------------|--5--7--5---------------------|
--------------------------4-5-4-5-|-----------8----7--8--7--5----|
------------------4-5-4-5---------|------------------------------|
----------4-5-4-5-----------------|------------------------------|
--6-7-6-7-------------------------|------------------------------|
----------------------------------|------------------------------|


                                               
----------------------------------------------|
----------------------------------------------|
----------------------------------------------|
--12--10--9--12--10--9------10--9-------------|
------------------------12---------12--10--9--|
----------------------------------------------|


                                                                                
----------------------------------------|--------------------------------------|
----------------------------------------|--12--10--12--15----13--15--13--10----|
-------------------------------9--8--9--|--------------------------------------|
----------------------9--8--9-----------|--------------------------------------|
--7--6--7--10--9--10--------------------|--------------------------------------|
----------------------------------------|--------------------------------------|


                                             
--------------------------------------------|
--12--13--12--------------------------------|
--------------12----14h16p14p12-------------|
--------------------------------16--14--12--|
--------------------------------------------|
--------------------------------------------|


                                                                   
----------------------------------------------|-------------------|
----------------------------------------------|-------------------|
----------------------------------------------|-------------------|
----------------------------------------------|--9----------------|
--15--14--12----------------------------------|--7----------------|
--------------15--14--12--10--8--7--10--8--7--|--0----------------|


                                                                      
------------------|--------------------------------------------------|
------------------|--------------------------------------------------|
------------------|--------------------------------------------------|
------------------|-----------10-12-10-------10----------------10-12-|
------------------|--10-12-14----------14-12----14-12-10-12-14-------|
------------------|--------------------------------------------------|


                                                   
--------------------------------------------------|
--------------------------------------------------|
--------------------------11-12-11----------------|
--10----------------10-12----------12-10----------|
-----14-12-10-12-14----------------------14-12-10-|
--------------------------------------------------|


                                             
--------------------------------------------|
--------------------------------------------|
--------------------------------------------|
----------9-12-10-9----10-9------------9-12-|
--9-10-12-----------12------12-10-9-10------|
--------------------------------------------|


                                               
----------------------------------------------|
----------------------------------------------|
-----------------------11-12-11---------------|
--10-9---------------9----------12-10-9-------|
-------12-10-9-10-12--------------------12-10-|
----------------------------------------------|


                                       
--------------------------------------|
--------------------------------------|
--------------------------------------|
---------9-10-9------8-7---------7-8--|
--7-9-10--------10-9-----10-8-10------|
--------------------------------------|


                                                
-----------------------------------------------|
-----------------------------------------------|
-----------------------------------------------|
-------------10-12-14-10-12-10-9----10-9-------|
----------10---------------------12------12-10-|
--8-10-12--------------------------------------|


                                                  
-------------------------------------------------|
-------------------------14-17-14----------------|
-------------------12-15----------15-12----------|
-------------11-14----------------------14-11----|
-------10-13----------------------------------13-|
--9-12-------------------------------------------|


                                              
---------------------------------------------|
--13p10-------------10p7---------------------|
--------11---------------8-------------------|
-----------13-10-----------10-7---10-12-10-9-|
-----------------12-------------9------------|
---------------------------------------------|


                                               
----------------------------------------------|
---------------10-12----10--------------------|
----------9-12-------12----12-11-9-12-11-9----|
--------9----------------------------------12-|
--10-12---------------------------------------|
----------------------------------------------|


                                                   
--------------------------------------------------|
--13-12-------12----------------------------------|
--------14-13----14-13-10-14-13-10-------10-------|
-----------------------------------14-12----14-12-|
--------------------------------------------------|
--------------------------------------------------|


                                                  
-------------------------------------------------|
-------------------------------------15-13-12-13-|
-------------------------14-13-12-13-------------|
--12-10-9-10-15-14-12-14-------------------------|
-------------------------------------------------|
-------------------------------------------------|


                                                 
--12p10-----------------------------------------|
--------10--------------------------------------|
-----------11-9------------------------11-12-14-|
----------------12------------------14----------|
-------------------12-10-9-10-12-14-------------|
------------------------------------------------|


                                                  
-------------------------------------------------|
-------------------------------------13-12-10-12-|
--------------------------12-11-9-11-------------|
--------------14-12-11-12------------------------|
--15-14-13-14------------------------------------|
-------------------------------------------------|


                                                                        
--15-15-------14-14-------12-12-------11-11-------|--------------------|
--------17-17-------16-16-------13-13-------12-12-|--------------------|
--------------------------------------------------|--12~---------------|
--------------------------------------------------|--------------------|
--------------------------------------------------|--------------------|
--------------------------------------------------|--------------------|


                                                            
--------------------------12--------|----------------------|
--------------------12-12-----------|----------------------|
-----------12-12-12-----------------|----------------17----|
--12-12-12--------------------------|--17------------------|
------------------------------------|----------------------|
------------------------------------|----------------------|


                                                                         
----------------------|--------------------------|----------------------|
------------15--------|--17----------------------|----------------------|
--16------------------|--------------16----17----|--16--------14--------|
----------------------|--------17----------------|----------------------|
----------------------|--------------------------|----------------------|
----------------------|--------------------------|----------------------|


                                                 
--17p13----------13-17p13-22p17----------17-22/-|
--------15----15----------------18----18--------|
-----------14----------------------19-----------|
------------------------------------------------|
------------------------------------------------|
------------------------------------------------|


                                                   
--13p10----------10-13p10-18----------------------|
--------11----11-------------18----------18-20-22-|
-----------10-------------------15-17-19----------|
--------------------------------------------------|
--------------------------------------------------|
--------------------------------------------------|


                                                   
--18-17-15----17-15-------15----------------15-17-|
-----------18-------18-17----18-17-15-17-18-------|
--------------------------------------------------|
--------------------------------------------------|
--------------------------------------------------|
--------------------------------------------------|


                                                                        
--18-15-20-15-18-15-18-20-18-24-22-24-20-22-20-24-|--25----------------|
--------------------------------------------------|--------------------|
--------------------------------------------------|--------------------|
--------------------------------------------------|--3-----------------|
--------------------------------------------------|--3-----------------|
--------------------------------------------------|--1-----------------|


                                                            
-------------------|-------------------|-------------------|
-------------------|-------------------|-------------------|
--5----------------|--7----------------|--2----------------|
--5----------------|--7----------------|--2----------------|
--3----------------|--5----------------|--0----------------|
-------------------|-------------------|-------------------|


                                                                              
----------------------------|----------------------------|-------------------|
----------------------------|----------------------------|-------------------|
----------------------------|----------3------------2----|-------------------|
--3------3--3--3------3--3--|----------3------------2----|--5----------------|
--1--1-1-1--1--1--1-1-1--1--|--1-1-1-1-1----0-0-0-0-0----|--5----------------|
----------------------------|----------------------------|--3----------------|


                                                                                
-------------------|-------------------|-------------------|-------------------|
-------------------|-------------------|-------------------|-------------------|
--5----------------|-------------------|--5----------------|--6----------------|
--5----------------|--3----------------|--5----------------|--7----------------|
--3----------------|--3----------------|--3----------------|--4----------------|
-------------------|--1----------------|-------------------|-------------------|


                                                             
--------------------|-------------------|-------------------|
--------------------|-------------------|--3----------------|
--7--------5--------|--3----------------|--4----------------|
--7--------5--------|--3----------------|--3----------------|
--5--------3--------|--1----------------|--2----------------|
--------------------|-------------------|-------------------|


                                                                   
-------------------|-------------------|--------------------------|
-------------------|-------------------|--------------------------|
--9----------------|--9----------------|-----7-----5-----4-----5--|
--9----------------|--9----------------|--------------------------|
--7----------------|--7----------------|--0-----0-----0-----0-----|
--0----------------|--0----------------|--------------------------|


                                                      
--------------------------|--------------------------|
-----------5-----6-----8--|-----7-----5-----7-----8--|
-----7--------------------|--------------------------|
--------------------------|--4-----4-----4-----4-----|
--3-----3-----3-----3-----|--------------------------|
--------------------------|--------------------------|


                                                       
---------------------------|--------------------------|
-----10-----8-----7-----5--|--------------------------|
---------------------------|-----7-----5-----4-----5--|
--5------5-----5-----5-----|--------------------------|
---------------------------|--0-----0-----0-----0-----|
---------------------------|--------------------------|


                                                      
--------------------------|--------------------------|
-----------5-----6-----8--|-----7-----5-----7-----8--|
-----7--------------------|--------------------------|
--------------------------|--4-----4-----4-----4-----|
--3-----3-----3-----3-----|--------------------------|
--------------------------|--------------------------|


                                                      
-----5-----3--------------|--------------------------|
-----------------7-----5--|--------------------------|
--------------------------|-----7-----5-----4-----5--|
--3-----3-----3-----3-----|--------------------------|
--------------------------|--0-----0-----0-----0-----|
--------------------------|--------------------------|


                                                      
--------------------------|--------------------------|
-----------5-----6-----8--|-----7-----5-----7-----8--|
-----7--------------------|--------------------------|
--------------------------|--4-----4-----4-----4-----|
--3-----3-----3-----3-----|--------------------------|
--------------------------|--------------------------|


                                                       
---------------------------|--------------------------|
-----10-----8-----7-----5--|--------------------------|
---------------------------|-----7-----5-----4-----5--|
--5------5-----5-----5-----|--------------------------|
---------------------------|--0-----0-----0-----0-----|
---------------------------|--------------------------|


                                                      
--------------------------|--------------------------|
-----------5-----6-----8--|-----7-----5-----7-----8--|
-----7--------------------|--------------------------|
--------------------------|--4-----4-----4-----4-----|
--3-----3-----3-----3-----|--------------------------|
--------------------------|--------------------------|


                                                                  
-----5-----3------------------|----------------------------------|
------------------------------|------------------4-5-4-5-7-8-7-8-|
------------------------------|----------4-5-4-5-----------------|
--3-----3---------------------|--4-5-4-5-------------------------|
------------------------------|----------------------------------|
--------------1-1-1-1-1-1-1-1-|----------------------------------|


                                                                         
--------------------------14-15-14-15-18-19-18-19-|--22----------------||
--11-12-11-12-14-15-14-15-------------------------|--------------------||
--------------------------------------------------|--------------------||
--------------------------------------------------|--------------------||
--------------------------------------------------|--------------------||
--------------------------------------------------|--------------------||





Comments


Popular Angra tabs & chords
Bleeding Heart Chords
Angels Cry 1 Tabs
Carolina Iv 1 Tabs
Evil Warning Tabs
Millenium Sun Tabs
Nova Era 1 Tabs
Reaching Horizons Tabs
Time Tabs
Carry On Ukulele
No Pain For The Dead Ukulele


Song lyrics



↑ Back to top | Tablatures and chords are parodies/interpretations of the original songs. You may use it for private study, scholarship, research or language learning purposes only
© 2014 AZChords.com Contact us | Privacy policy | DMCA | Add/correct tabs | Request tabs | Top 50 tabs