>
 >
Acid Rain

Acid Rain Bass Tabs

Angra - Acid Rain chords, tabs, tablatures, lyrics

Guitar lessons | Add/correct | Request | Top 50 tabs Artists:  A B C D E F G H I J K L M N O P Q R S T U V W X Y Z 0-9

Acid Rain Bass Tabs – Angra

CD, Sheet music, Poster

Do you like Acid Rain? Share with your friends now
Bass Tabs
INTRO
G||--2--2-----------|--2--2-----------|--2--2-----------|-------------------|
D||--2--2-----------|--2--2-----------|--2--2-----------|-------------------|
A||--0--0-----------|--0--0-----------|--0--0-----------|--1----------------|
E||-----------------|-----------------|-----------------|-------------------|
B||-----------------|-----------------|-----------------|-------------------|

--2--2-----------|--2--2-----------|--2--2-----------|-------------------|
--2--2-----------|--2--2-----------|--2--2-----------|-------------------|
--0--0-----------|--0--0-----------|--0--0-----------|--3----------------|
-----------------|-----------------|-----------------|-------------------|
-----------------|-----------------|-----------------|-------------------|

--2--2~----------|--5-5~-------------|-----------------|-----------------||
--2--2~----------|--5-5~-------------|--4~-------------|-----------------||
--0--0~----------|--3-3~-------------|-----------------|--3~-------------||
-----------------|-------------------|--2~-------------|-----------------||
-----------------|-------------------|-----------------|--1~-------------||

PRE VERSE 1                   
-----------------------------------|----------------------------------------|
-----------------------------------|----------------------------------------|
----------------------5-5-5-55-552-2-2-22-32-|------------------3--6--------|
0-0-0-00-005-5-5-55-55-------------|0-0-0-00-005-5-5-55-55------------7-----|
-----------------------------------|----------------------------------------|

-----------------------------5~-----|----------------------------5~--------|
------------------------------------|--------------------------------------|
-----------------------------3~-3-5-|----------------------------3~--------|
--00-00000-00-00000-00-00000--------|--00000000000000000000000000----12//0-|
------------------------------------|

------------------|------------------|------------------|------------------||
------------------|------------------|------------------|------------------||
------7~----------|------5~----------|------3~----------|------------------||
--000--0-0--------|--000--0-0--------|--000--0-0--------|--0-0-0-0-0-0-6~--||
------------------|------------------|------------------|------------------||

VERSE
----------------|-----------------|---------------------|---------------|| x2
----------------|-----------------|---------------------|---------------||
----------------|-----------------|---------------------|---------------||
000-0000000000-000|000-0000000000-000|000-0000000000-000|000-0000000000-012//0||
----------------|-----------------|---------------------|---------------||

BRIDGE 
------------------|    -------------------|
------7----5h7-77-| x2 -------------------| x2
--000--000--------|    -----7---5------57-|
------------------|    --00--00---0000----|
------------------|    -------------------|
\_________________x2_____________________________/

--------------------------------|-----------------------|----------------------------------|5~---||
--------------------------------|-----------------------|----------------------------------|-----||
--------------------------------|-----------------------|----------------------------------|3~//8||
0h2-22-0h2-22-2222-0h2-22-0h2-2222|000-00-2-2222--333-33|0h2-22-0h2-22-2222-0h2-22-0h2-2222|-------||
--------------------------------|---------------------3-|----------------------------------|------||

CHORUS
--------------------------------------------------------------------------| 
--------------------------------------------------------------------------| x2
-----------------------------------------------33-3333333-----------------|
--55-55555555555-33-33333333333-11-11111111111------------33-3333333------|
--------------------------------------------------------------------------|

------------------------------------------------------------------------------------------------|
---(it's 12)--------------------(it's 10)-------------------------------------------------------|
--1212-1212121212121212121212-1010-10101010101010101010-88-88888888888-33-3333333---------------|
----------------------------------------------------------------------------------33-3333333333-|
------------------------------------------------------------------------------------------------|

-------------------------------------5~-----------------------||
--------------------------------------------------------------||
-------------------------------------3~-----------------------||
--55-55555555555-33-33333333333-1~--------3---6~-----------1~-||
--------------------------------------------------------------||

FUNNY PART
--------|--------|--------|------------------|-----------|------------|
--------|--hold--|--hold--|-----5----4-------|-----------|------------|
---3333-|--------|--------|--33----3----3333-|--33-------|--66-4-2-3~-|
--------|--------|--------|------------------|-----44-2~-|------------|
--------|--------|--------|------------------|-----------|------------|

------------------|--------------------|
-----5----4-------|--------------------|
--33----3----3333-|--33--------66-44---|
------------------|-----44-2---------3-|
------------------|--------------------|

-------------------|-------------------|--------------------|-------------------|
-----5---4-----4-5-|-------------------|--------------------|-----5---4-----4-5-|
--33---3---333-----|----3---2------2-3-|--000-6-0-5-000-5-6-|--33---3---333-----|
-------------------|--11--1---1111-----|--------------------|-------------------|
-------------------|-------------------|--------------------|-------------------|
                                                                       this is very fast
-----------------------------------------------------------------| x2 |-----------------| |
------------------------------------4----------------------------|    |-----------------||
-----------------222222222222222-----------------333333333333333-|    |--222222-1111111-||
--00000000000000-----------------222222222222222-----------------|    |-----------------||
-----------------------------------------------------------------|    |-----------------||

MISEREBUS
--22~--| x3 |-----||
--22~--|    |-----||
--00~--|    |-----||
-------|    |--1~-||
-------|    |-----||

SOLO
------------------------------------------------------------------------------------|
------------------------------------------------------------------------------------|
--0-000-000-000-000-000-000-000-000-000-000-000-000---------------------------------|
----------------------------------------------------1-111-111-111-111-111-111-1113~-|
------------------------------------------------------------------------------------|

--------------------------------------------------------------||
--------------------------------------------------------------||
--0-000-000-000-000-000-000-000-000-000-000-000-000-0//8-8-8~-||
--------------------------------------------------------------||
--------------------------------------------------------------||



GET ON YOUR FINGERS PART
--------------------------|----------------------|----------------------------|-----------------||
--------------------------|----------------------|----------------------------|-----------------|| x2
-----5----7----75---7-----|-----7----5----10-9-5-|-----5----7----75---7-------|-----------------||
00---00---00----7---7-5-3-|--00---00---00--------|--00---00---00----7---7-5-3-|3-33-33-5555-3333||
--------------------------|----------------------|----------------------------|-----------------||

IDK
-----------------------------------------------------------------|
-----------------------------------------------------------------|
------(it's 12)--------------------------------------------------|
--121212121212121212121212-77777777777-555555555555-000000000000-|
-----------------------------------------------------------------|

----------------------------------------------------|
----------------------------------------------------|
----------------------------------------------------|
--121212121212121212121212-77777777777-555555555555-|
----------------------------------------------------|

----------------------------------------------------------------------------------------|
----------------------------------------------------------------------------------------|
----------------------------------------------------------------------------------------|
-1212121212121212-1111111111111111-1010101010101010-99999999-88888888-77777777-00000000-|
----------------------------------------------------------------------------------------|

----------------------------------------------------------------------------------------------------| 
---------------------this time is like ultra fast---------------------------------------------------|
----------------------------------------------------------------------------------------------------|
12(play 12 times)-11(12 times too)-10(12 times too)-999999999999-888888888888-777777777777----------|
----------------------------------------------------------------------------------------------------|

---------------||
---------------||
---------------||
-0~-2~-3~//15~-||
---------------||

VERSE
---------------------|---------------------|-------------------------|-------------------------|| x2
---------------------|---------------------|-------------------------|-------------------------||
---------------------|---------------------|-------------------------|-------------------------||
--000-0000000000-000-|--000-0000000000-000-|--000-0000000000-000-----|--000-0000000000-00012//0||
---------------------|---------------------|-------------------------|-------------------------||

BRIDGE 
------------------|    -------------------|
------7----5h7-77-| x2 -------------------| x2
--000--000--------|    -----7---5------57-|
------------------|    --00--00---0000----|
------------------|    -------------------|
\_________________x2_____________________________/

-----------------------------------|--------------------------|-------------------------------------|
-----------------------------------|--------------------------|-------------------------------------|
-----------------------------------|--------------------------|-------------------------------------|
0h2-22-0h2-22-2222-0h2-22-0h2-2222-|--000-00-2-2222--333-33---|--0h2-22-0h2-22-2222-0h2-22-0h2-2222-|
-----------------------------------|------------------------3-|-------------------------------------|

-5~--------------------------------------------||
-----------------------------------------------||
-3~--1~---4~--//10h12-12-1212-10h12-12-12121212||
-----------------------------------------------||
--------------(10 and 12, do with the drums)---||


CHORUS
--------------------------------------------------------------------------| 
--------------------------------------------------------------------------| x2
-----------------------------------------------33-3333333-----------------|
--55-55555555555-33-33333333333-11-11111111111------------33-3333333------|
--------------------------------------------------------------------------|

------------------------------------------------------------------------------------------------|
---(it's 12)--------------------(it's 10)-------------------------------------------------------|
--1212-1212121212121212121212-1010-10101010101010101010-88-88888888888-33-3333333---------------|
----------------------------------------------------------------------------------33-3333333333-|
------------------------------------------------------------------------------------------------|

----------------------------------------------|
----------------------------------------------|
----------------------------------------------|
--55-55555555555-33-33333333333-1-111111111111|
----------------------------------------------|

-5~--------------------------------------------------------------------||
-5~--------------------------------------------------------------------||
-3~--------33333333333333----------------------------------------------||
---------------------------3333333333333333--4444444444444--666666666--||
-----------------------------------------------------------------------||

MISEREBUS
-5-5------|
-5-5------|
-3-3---3~-|
----------|
-------1~-|





Comments


Popular Angra tabs & chords
No Pain For The Dead Chords
Carry On 1 Tabs
Millenium Sun Tabs
Nova Era Tabs
Rebirth Tabs
Speed (Intro) Tabs
Temple Of Hate Tabs
Arising Thunder Ukulele
No Pain For The Dead Ukulele
Zito Ukulele


Song lyrics



↑ Back to top | Tablatures and chords are parodies/interpretations of the original songs. You may use it for private study, scholarship, research or language learning purposes only
© 2014 AZChords.com Contact us | Privacy policy | DMCA | Add/correct tabs | Request tabs | Top 50 tabs