» » »

You've Got A Friend In Pennsylvania Tabs (ver.1)

Artists:  A B C D E F G H I J K L M N O P Q R S T U V W X Y Z # 

You've Got A Friend In Pennsylvania Tabs (ver.1)

New Found Glory
Rating:
0/5 (0 votes)
Tabs too difficult? Try these video lessons and learn fast.
                ok, this one is cool , this is all I could figured out 

*=palm mute

Intro

e|----------------------------------------------------------------------------------|
B|----------------------------------------------------------------------------------|
G|-5---------------------------------------5----------------------------------------|
D|-5-( x6 )--5---------7---------3---------5-( x6 )--5---------7---------3----------|
A|-3---------5-( x6 )--7-( x6 )--3-( x6 )--3---------5-( x6 )--7-( x6 )--3-( x6 )---|
E|-----------3---------5---------1-------------------3---------5---------1----------|


Verse    
e|----------------------------------------------------------------------------------|
B|----------------------------------------------------------------------------------|
G|-55-5-55-5-55-5-55-5----------------------55-5-55-5-55-5-55-5---------------------|
D|-55-5-55-5-55-5-55-5-33-3-33-3-33-3-33-3--55-5-55-5-55-5-55-5-3-3-3-3-3-3-3-3-----|
A|-33-3-33-3-33-3-33-3-33-3-33-3-33-3-33-3--33-3-33-3-33-3-33-3-3-3-3-3-3-3-3-3-----|
E|---------------------11-1-11-1-11-1-11-1----------------------1-1-1-1-1-1-1-1-----|
   **   **   **   **   **   **   **   **    **   **   **   ** 	  

e|-----------------------------------------------------------------------------------|
B|-----------------------------------------------------------------------------------|
G|-55-5-55-5-55-5-55-5----------------------55-5-55-5-55-5-55-5----------------------|
D|-55-5-55-5-55-5-55-5-33-3-33-3-33-3-33-3--55-5-55-5-55-5-55-5-3-3-3-3-3-3-3-3--3-5-|
A|-33-3-33-3-33-3-33-3-33-3-33-3-33-3-33-3--33-3-33-3-33-3-33-3-3-3-3-3-3-3-3-3--3-5-|
E|---------------------11-1-11-1-11-1-11-1----------------------1-1-1-1-1-1-1-1--1-3-|
   **   **   **   **   **   **   **   **    **   **   **   ** 	  
	 
Chorus
e|---------------------------------------------------------------------------|
B|---------------------------------------------------------------------------|
G|-5-5-----------------5-5-----------------5-5-------------------------------|
D|-5-5--5-5--7-7--3-3--5-5--5-5--7-7--3-3--5-5--5-5--7-7--3-3--7-7--5-5------|
A|-3-3--5-5--7-7--3-3--3-3--5-5--7-7--3-3--3-3--5-5--7-7--3-3--7-7--5-5------|
E|------3-3--5-5--1-1-------3-3--5-5--1-1-------3-3--5-5--1-1--5-5--3-3------|

e|---------------------------------------------------------------------------|
B|---------------------------------------------------------------------------|
G|-5-5-5-5-5-5-5-5-5-5-5-5-5-5-5-5-------------------------------------------|
D|-5-5-5-5-5-5-5-5-5-5-5-5-5-5-5-5--5-5-5-5-5-5-5-5-5-5-5-5-5-5-5-5----------|
A|-3-3-3-3-3-3-3-3-3-3-3-3-3-3-3-3--5-5-5-5-5-5-5-5-5-5-5-5-5-5-5-5----------|
E|----------------------------------3-3-3-3-3-3-3-3-3-3-3-3-3-3-3-3----------|

Bridge - Half Beat Strumming

e|---------------------------------------------------------------------------|
B|---------------------------------------------------------------------------|
G|-5-5-5-5-----------------------------5-5-5-5-------------------------------|
D|-5-5-5-5--5-5-5-5--7-7-7-7--3-3-3-3--5-5-5-5--5-5-5-5--7-7-7-7--3-3-3-3----|
A|-3-3-3-3--5-5-5-5--7-7-7-7--3-3-3-3--3-3-3-3--5-5-5-5--7-7-7-7--3-3-3-3----|
E|----------3-3-3-3--5-5-5-5--1-1-1-1-----------3-3-3-3--5-5-5-5--1-1-1-1----|

e|---------------------------------------------------------------------------|
B|---------------------------------------------------------------------------|
G|-5-5-5-5-----------------------------5-5-5-5-------------------------------|
D|-5-5-5-5--5-5-5-5--7-7-7-7--3-3-3-3--5-5-5-5--5-5-5-5--7-7-7-7--3-3-3-3----|
A|-3-3-3-3--5-5-5-5--7-7-7-7--3-3-3-3--3-3-3-3--5-5-5-5--7-7-7-7--3-3-3-3----|
E|----------3-3-3-3--5-5-5-5--1-1-1-1-----------3-3-3-3--5-5-5-5--1-1-1-1----|


Bridge - x4 - End on 3-5-5 on A string.
            
Tabs too difficult? Try these video lessons and learn fast.


comments powered by Disqus
↑ Back to top | Tablatures and chords are parodies/interpretations of the original songs. You may use it for private study, scholarship, research or language learning purposes only