» » »

Vegas Tabs (ver.1)

Artists:  A B C D E F G H I J K L M N O P Q R S T U V W X Y Z # 

Vegas Tabs (ver.1)

New Found Glory
Rating:
0/5 (0 votes)

Hard to play? Try these video lessons and learn fast.
                "Vegas" - A New Found Glory

Intro
e |------------------------------------------|
B |------------------------------------------|
G |-------------------------------6-6--------|
D |-2-2--6-7--2-2--6-7--2-2--6-7--6-6--6-7---|
A |-2-2--6-7--2-2--6-7--2-2--6-7--4-4--6-7---|
E |-0-0--4-5--0-0--4-5--0-0--4-5-------4-5---|

e |------------------------------------------|
B |------------------------------------------|
G |-9-9-9-9-9-9-9-9-9-9-9-9-9-9-9-9-9-9-9-9--|
D |------------------------------------------|
A |-7-7-7-7-7-7-7-7-7-7-7-7-7-7-7-7-7-7-7-7--|
E |------------------------------------------|

Verse 
e |---------------------------------------------|
B |---------------------------------------------|
G |----------------------------------6-6--------|
D |-2-2-------2-2-------2-2----------6-6--6-7---|
A |-2-2-------2-2-------2-2----------4-4--6-7---|
E |-0-0-------0-0-------0-0---------------4-5---|

Intro 2
e |------------------------------------------|
B |------------------------------------------|
G |-------------------------------6-6--------|
D |-2-2--6-7--2-2--6-7--2-2--6-7--6-6--6-7---|
A |-2-2--6-7--2-2--6-7--2-2--6-7--4-4--6-7---|
E |-0-0--4-5--0-0--4-5--0-0--4-5-------4-5---|

Intro 2
e |------------------------------------------|
B |------------------------------------------|
G |-9-9-9-9-9-9-9-9-9-9-9-9-9-9-9-9-9-9-9-9--|
D |------------------------------------------|
A |-7-7-7-7-7-7-7-7-7-7-7-7-7-7-7-7-7-7-7-7--|
E |------------------------------------------|

Verse 2
e |---------------------------------------------|
B |---------------------------------------------|
G |----------------------------------6-6--------|
D |-2-2-------2-2-------2-2----------6-6--6-7---|
A |-2-2-------2-2-------2-2----------4-4--6-7---|
E |-0-0-------0-0-------0-0---------------4-5---|

Verse 2
e |------------------------------------------|
B |------------------------------------------|
G |-9-9-9-9-9-9-9-9-9-9-9-9-9-9-9-9-9-9-9-9--|
D |------------------------------------------|
A |-7-7-7-7-7-7-7-7-7-7-7-7-7-7-7-7-7-7-7-7--|
E |------------------------------------------|

Chorus : (x4)
e |----------------------------------------------------|
B |----------------------------------------------------|
G |----------------------------------------------------|
D |-2-2--7--6-6--7--4-4--6--7-7--6---------2--2--2-2---|
A |-2-2--7--6-6--7--4-4--6--7-7--6---------2--2--2-2---|
E |-0-0--5--4-4--5--2-2--4--5-5--4---------0--0--0-0---|
					  
Breakdown
e |--------------------------------------------------------------|
B |--------------------------------------------------------------|
G |--------------------------------------------------------------|
D |-2-2-----2-2-----2-2-------2-2-----2-2-----2-2--------2-2-2---|
A |-2-2-----2-2-----2-2-------2-2-----2-2-----2-2--------2-2-2---|
E |-0-0-----0-0-----0-0-------0-0-----0-0-----0-0--------0-0-0---|
						      [palm mute]
            
Hard to play? Try these video lessons and learn fast. | Correct




comments powered by Disqus
↑ Back to top | Tablatures and chords are parodies/interpretations of the original songs. You may use it for private study, scholarship, research or language learning purposes only