» » »

Understatement Bass tabs (ver.2)

Artists:  A B C D E F G H I J K L M N O P Q R S T U V W X Y Z # 

Understatement Bass tabs (ver.2)

New Found Glory
Rating:
0/5 (0 votes)

Hard to play? Try these video lessons and learn fast.
                New Found Glory
"Understatement"
Sticks And Stones (Track 1)
Standard Tuning (EADG)

Intro:
G--------------------------------
D--------------------------------
A--------------------------------
E-0-0-0000-0-0000-0-0000-0-0000-0


Verse: {0:06} (x2)
G------------9/0------------
D------------9/0------------
A---------0>--------------0>
E-0>>>-2>---------0>>>-2>---


Pre-Chorus: {0:37} (x2)
G--------------------------|-----
D--------------------------|-----
A-4>>-2>>-0>>-2>>-4>>-2>>-0|--2-2
E--------------------------------


Chorus: {0:52} 
     Play 3x        Then Play:
G----------------|---------------
D----------------|---------------
A---------0>>-2>>|4---0---0-2-2--
E-0>>-2>>--------|--------------0


{1:10} Verse

{1:25} Pre-Chorus (x2)

{1:41} Chorus


Breakdown: {1:55}
G--------------------------------------------
D--------------------------------------------
A-----------------------0000-0-0-0-0000-0-2-2
E-0000-0-0-0-2222-2-2-2----------------------

G--------------------------------------------
D--------------------------------------------
A-----------------------0000-0-0-0-0000-0-0-0
E-0000-0-0-0-2222-2-2-2----------------------

G--------------------------------------------|-------------
D--------------------------------------------|-------------
A-----------------------0000-0-0-0-0000-0-2-2|4---0---0-2-2
E-0000-0-0-0-2222-2-2-2----------------------|-------------

G--------------------------
D--------------------------  (x3)
A--------------0--0-0-22-22
E-0--0-0-22-22-------------


{2:45} Chorus

Ending:
E-0000--0--0


Please rate it if you like it. Email me with any questions.
            
Hard to play? Try these video lessons and learn fast. | Correct




comments powered by Disqus
↑ Back to top | Tablatures and chords are parodies/interpretations of the original songs. You may use it for private study, scholarship, research or language learning purposes only