» » »

Tell Tale Heart Bass tabs (ver.1)

Artists:  A B C D E F G H I J K L M N O P Q R S T U V W X Y Z # 

Tell Tale Heart Bass tabs (ver.1)

New Found Glory
Rating:
0/5 (0 votes)

Tabs too difficult? Try these video lessons and learn fast.
                A New Found Glory
"Tell Tale Heart"
Nothing Gold Can Stay (Track 7)
Standard Tuning (EADG)

Intro:

G---------------------------------------------------------------------
D----------------------------------7>---------------------------------
A-0-0000-0000-0000-5>>-0>-5>-0>-5>----5>-0>-5>-0----5-4-2-----5--5-4-2
E-----------------------------------------------------------0---------


Verse 1: {0:51} (x2)

G-------------------------
D-------------------------
A----------------5>>-5-4-2
E-5>>-4>-5>-0>>-----------


Verse 2: {1:02} (x2)
  
 Play 3 Times    Play 4th Time
G--------------|------
D--------------|2>-0-0
A-00-22-5>>-4-2|------
E--------------|------


Pre-Chorus {1:21} (x2)

G----------------------------------|---
D-------------------7>>-6>-7>------|---
A----------5>>-4>-5>---------------|---
E-5>>-4>-5>-------------------0>>--|5-7


Chorus: {1:39} (x2)

G-------------------|-----------------
D-------------------|-----------------
A-0>>-5>>-0>>-5>-4>-|0-0-0-0--5--5-4-2
E-------------------|-----------------


{2:06} Verse 1 (x2)

{2:18} Verse 2 (x2)

{2:37} Pre-Chorus (x2)

{2:55} Chorus (x2)


Please rate it if you like it. Email Me with any questions.
            
Tabs too difficult? Try these video lessons and learn fast.


comments powered by Disqus
↑ Back to top | Tablatures and chords are parodies/interpretations of the original songs. You may use it for private study, scholarship, research or language learning purposes only