» » »

Sucker Tabs (ver.1)

Artists:  A B C D E F G H I J K L M N O P Q R S T U V W X Y Z # 

Sucker Tabs (ver.1)

New Found Glory
Rating:
0/5 (0 votes)

Tabs too difficult? Try these video lessons and learn fast.
                                                 Sucker

Intro
e|---------------------------------------------------------------------------|
B|---------------------------------------------------------------------------|
G|-6-6--6---13\11---11\10---10\8---8\6---6-----------------------------------|
D|-6-6--6--------------------------------------------------------------------|
A|-4-4--4---11\-9----9\-8----8\6---6\4---4-----------------------------------|
E|---------------------------------------------------------------------------|

e|---------------------------------------------------------------------------|
B|---------------------------------------------------------------------------|
G|-6-6--6---13\11---11\10---10\8---8\6---6/8---6-----------------------------|
D|-6-6--6--------------------------------------------------------------------|
A|-4-4--4---11\-9----9\-8----8\6---6\4---4/6---4-----------------------------|
E|---------------------------------------------------------------------------|

Verse x 4
e|---------------------------------------------------------------------------|
B|---------------------------------------------------------------------------|
G|-6-6--6-6------------------------------------------------------------------|
D|-6-6--6-6---4-4--4-4-------------------------------------------------------|
A|-4-4--4-4---4-4--4-4-------------------------------------------------------|
E|------------2-2--2-2-------------------------------------------------------|

Pre Chorus x 1
e|---------------------------------------------------------------------------|
B|---------------------------------------------------------------------------|
G|-3-3-3-3-----------3-3-3-3-----------3-3-3-3-------------------------------|
D|-3-3-3-3--4-4-4-4--3-3-3-3--4-4-4-4--3-3-3-3--4-4-4-4--6--6--6--6----------|
A|-1-1-1-1--4-4-4-4--1-1-1-1--4-4-4-4--1-1-1-1--4-4-4-4--6--6--6--6----------|
E|----------2-2-2-2-----------2-2-2-2-----------2-2-2-2--4--4--4--4----------|

Chorus x 3
e|---------------------------------------------------------------------------|
B|---------------------------------------------------------------------------|
G|-6-6-6--6-6-6--------------------------------------------------------------|
D|-6-6-6--6-6-6--8-8-8--6-6-6------------------------------------------------|
A|-4-4-4--4-4-4--8-8-8--6-6-6------------------------------------------------|
E|---------------6-6-6--4-4-4------------------------------------------------|

Post Chorus x 2
e|---------------------------------------------------------------------------|
B|---------------------------------------------------------------------------|
G|-----6---------------------------------------------------------------------|
D|-4~--6---6-----------------------------------------------------------------|
A|-4~--4---6-----------------------------------------------------------------|
E|-2~------4-----------------------------------------------------------------|

Intro
e|---------------------------------------------------------------------------|
B|---------------------------------------------------------------------------|
G|-6-6--6---13\11---11\10---10\8---8\6---6-----------------------------------|
D|-6-6--6--------------------------------------------------------------------|
A|-4-4--4---11\-9----9\-8----8\6---6\4---4-----------------------------------|
E|---------------------------------------------------------------------------|



e|---------------------------------------------------------------------------|
B|---------------------------------------------------------------------------|
G|-6-6--6---13\11---11\10---10\8---8-----------------------------------------|
D|-6-6--6--------------------------------------------------------------------|
A|-4-4--4---11\-9----9\-8----8\6---6-----------------------------------------|
E|---------------------------------------------------------------------------|

Verse x 4

Pre Chorus x 1

Chorus x 4

Post Chorus x 2

Bridge (verse) x 4

Interlude (pre chorus/clean with flanger)

Chorus x 3

Post Chorus x 2

Finish x 4
e|---------------------------------------------------------------------------|
B|---------------------------------------------------------------------------|
G|-6-6-6--6-6-6--------------------------------------------------------------|
D|-6-6-6--6-6-6--8-8--8-8--6-6--6-6------------------------------------------|
A|-4-4-4--4-4-4--8-8--8-8--6-6--6-6------------------------------------------|
E|---------------6-6--6-6--4-4--4-4------------------------------------------|
            
Tabs too difficult? Try these video lessons and learn fast.


comments powered by Disqus
↑ Back to top | Tablatures and chords are parodies/interpretations of the original songs. You may use it for private study, scholarship, research or language learning purposes only