» » »

Sonny Bass tabs (ver.1)

Artists:  A B C D E F G H I J K L M N O P Q R S T U V W X Y Z # 

Sonny Bass tabs (ver.1)

New Found Glory
Rating:
0/5 (0 votes)

Tabs too difficult? Try these video lessons and learn fast.
                you just gotta practice O:-) this son is really fun to play. THIS IS 110% RITE!!!

~= let ring

Intro x1:
G-2-2--2-2--2-2--2-2------------------
D--------------------4-4--4-4--4-4-4-4
A-------------------------------------
E-------------------------------------

Verse x4:
G------2-4-4-2-------2-4-4-2-------------------------------
D-----2-------2-----2-------2------2-4-4--2-------2-4-4--2-
A-0-0-----------0-0---------------4--------4-----4--------4
E-----------------------------2-2------------2-2-----------

Chorus x1:
G--------------------------------
D-0-0-0-0-0-0-0-0-2-2-2-2-2-2-2-2
A--------------------------------
E--------------------------------

G---------------------------------
D------2-4-4--2-------2-4-4--2-2--
A-----4--------4-----4------------
E-2-2------------2-2--------------

G--------------------------------
D-0-0-0-0-0-0-0-0-2-2-2-2-2-2-2-2
A--------------------------------
E--------------------------------

G---------------------------------
D------2-4-4--2-------2-4-4--2-2--
A-----4--------4-----4------------
E-2-2------------2-2--------------

G--------------------------
D-0-0-0-0-0-0-0-0-2-2-2-2-2
A--------------------------
E--------------------------

Fill x1:
G------2-4-4-2-------2-4-4-2-------------------------------
D-----2-------2-----2-------2------2-4-4--2-------2-4-4--2-
A-0-0-----------0-0---------------4--------4-----4--------4
E-----------------------------2-2------------2-2-----------

Verse x4:
G------2-4-4-2-------2-4-4-2-------------------------------
D-----2-------2-----2-------2------2-4-4--2-------2-4-4--2-
A-0-0-----------0-0---------------4--------4-----4--------4
E-----------------------------2-2------------2-2-----------

Chorus x1:
G--------------------------------
D-0-0-0-0-0-0-0-0-2-2-2-2-2-2-2-2
A--------------------------------
E--------------------------------

G---------------------------------
D------2-4-4--2-------2-4-4-2-2---
A-----4--------4-----4------------
E-2-2------------2-2--------------

G--------------------------------
D-0-0-0-0-0-0-0-0-2-2-2-2-2-2-2-2
A--------------------------------
E--------------------------------

G--------------------------------
D------2-4-4--2-------2-4--2-----
A-----4--------4-----4-----------
E-2-2------------2-2-------------

G--------------------------------
D-0-0-0-0-0-0-0-0-2-2-2-2-2-2-2-2
A--------------------------------
E--------------------------------

G--------------------------------
D--------------------------------
A--------------------------------
E-2-2-2-2-2-2-2-2-0-0-0-0-0-0-0-0

G--------------------------------
D-0-0-0-0-0-0-0-0-2-2-2-2-2-2-2-2
A--------------------------------
E--------------------------------

G--------------------------------
D--------------------------------
A--------------------------------
E-2-2-2-2-2-2-2-2-0-0-0-0-0-0-0-0

G--------------------------------
D-0-0-0-0-0-0-0-0-2-2-2-2-2-2-2-2
A--------------------------------
E--------------------------------

GUITAR 

Bridge:
G------2-4-4-2--------------------------
D-----2--------2----2-4-4-2-----2-4-4-2-
A-0-0--------------4-------4---4-------4
E---------------2-2---------2-2---------

G------2-4-4-2-------2-4-4-2-------------------------------
D-----2-------2-----2-------2------2-4-4--2-------2-4-4-2-2
A-0-0-----------0-0---------------4--------4-----4---------
E-----------------------------2-2------------2-2-----------

Chorus x1:
G--------------------------------
D-0-0-0-0-0-0-0-0-2-2-2-2-2-2-2-2
A--------------------------------
E--------------------------------

G---------------------------------
D------2-4-4--2-------2-4-4-2-2---
A-----4--------4-----4------------
E-2-2------------2-2--------------

G--------------------------------
D-0-0-0-0-0-0-0-0-2-2-2-2-2-2-2-2
A--------------------------------
E--------------------------------

G--------------------------------
D------2-4-4--2-------2-4--2-----
A-----4--------4-----4-----------
E-2-2------------2-2-------------

G--------------------------------
D-0-0-0-0-0-0-0-0-2-2-2-2-2-2-2-2
A--------------------------------
E--------------------------------

G--------------------------------
D--------------------------------
A--------------------------------
E-2-2-2-2-2-2-2-2-0-0-0-0-0-0-0-0

G--------------------------------
D-0-0-0-0-0-0-0-0-2-2-2-2-2-2-2-2
A--------------------------------
E--------------------------------

G--------------------------------
D--------------------------------
A--------------------------------
E-2-2-2-2-2-2-2-2-0-0-0-0-0-0-0-0

G--------------------------------
D-0-0-0-0-0-0-0-0-2-2-2-2-2-2-2-2
A--------------------------------
E--------------------------------

Outro x1:
G-2-2--2-2--2-2--2-2------------------2~
D-------------------4-4--4-4--4-4--4-4--
A---------------------------------------
E---------------------------------------
            
Tabs too difficult? Try these video lessons and learn fast.




comments powered by Disqus
↑ Back to top | Tablatures and chords are parodies/interpretations of the original songs. You may use it for private study, scholarship, research or language learning purposes only