» » »

Sincerely Me Bass tabs (ver.1)

Artists:  A B C D E F G H I J K L M N O P Q R S T U V W X Y Z # 

Sincerely Me Bass tabs (ver.1)

New Found Glory
Rating:
0/5 (0 votes)

Tabs too difficult? Try these video lessons and learn fast.
                INTRO/VERSE
G--------------4-
D--45--45---445-5
A----00--333-----
E33--------------

CHORUS
G------------------------
D------------------------
A---00-33333-------------
E33----------------------

G------------------------
D------------------------
A------------333---------
E333222000---------------

YOU CAN WORK OUT THE TIMING ITS EASY
FOR THE INTERLUDE YOU CAN EITHER PLAY 
THE CHORUS OR THE VERESE.
            
Tabs too difficult? Try these video lessons and learn fast.




comments powered by Disqus
↑ Back to top | Tablatures and chords are parodies/interpretations of the original songs. You may use it for private study, scholarship, research or language learning purposes only