» » »

Never Sometimes Bass tabs (ver.1)

Artists:  A B C D E F G H I J K L M N O P Q R S T U V W X Y Z # 

Never Sometimes Bass tabs (ver.1)

New Found Glory
Rating:
0/5 (0 votes)

Tabs too difficult? Try these video lessons and learn fast.
                A New Found Glory
"Never Sometimes"
Nothing Gold Can Stay (Track 11)
Standard Tuning (EADG)

Verse 1: (x2)

G---------------------------------7-------
D-7>-5>-4>-7>-5>-4>-7>-5>-4>-7>>-5--------
A-----------------------------------------
E----------------------------------3>>-5>>


Verse 2: {0:18}

G----------------------------------------------------
D----------------------------------------------------
A----------------------------------------------------
E-2>-3>-5>>-2>-3>-5>>-222-2333-35>>-222-2333-35>>-5-5


{0:35} Verse 1 (x2)

{0:51} Verse 2


Breakdown: {1:16} (x10)

G--------------------
D--------------------
A-555--------------77
E----222-333-222-55--


Verse 3: {1:50} (x4)

G--------------------------------
D--------------------------------
A-55xx55xx55xx55-12/3------------
E--------------------333-222-5555


Ender: {2:17}

G---------------
D---------------
A-55xx55xx55xx55
E---------------


Please rate it if you like it. Email Me with any questions.
            
Tabs too difficult? Try these video lessons and learn fast.




comments powered by Disqus
↑ Back to top | Tablatures and chords are parodies/interpretations of the original songs. You may use it for private study, scholarship, research or language learning purposes only