» » »

My Heart Will Go On Tabs (ver.3)

Artists:  A B C D E F G H I J K L M N O P Q R S T U V W X Y Z # 

My Heart Will Go On Tabs (ver.3)

New Found Glory
Rating:
0/5 (0 votes)

Tabs too difficult? Try these video lessons and learn fast.
                
big important tip... listen to the song, didnt tab solo, sorry
but its pretty much the same scale as the intro... figure it out.
might be a little wrong cause i was in a rush near the ending.

# - palm mute

intro
e|-------------------------------|------------------------------|
B|-------------------------------|------------------------------|
G|-------------------------------|--------------------6-8-9-8-6-|
D|-----6-6-6h9p6-----9-6---------|-----6-6-6h9p6----9-----------|
A|-7h9-----------9-9-----9-7-----|-7h9-----------9-9------------|
E|---------------------------9-7-|------------------------------|

verse 1
e|-----------------------------------|------|
B|--------------------------------x4-|------|
G|-9----9----------------------------|------|
D|-9----9--9----9--7----7--6----6----|-4----|
A|-7-x2-7--9----9--7----7--6----6----|-4----|
E|---------7-x2-7--5-x2-5--4-x2-4----|-2-x2-|
   #       #       #       #
verse 2
e|-----------|-----------------|-----------------------|
B|-----------|--------------x2-|-----------------------|
G|---4-2-6-4-|--4-2-6-6-4-4----|---4-2-6----6-4----4---|
D|-2-4-2-6-4-|2-4-2-6-6-4-4----|-2-4-2-6----6-4----4-2-|
A|-2-2-0-4-2-|2-2-0-4-4-2-2----|-2-2-0-4-x2-4-2-x2-2-2-|
E|-0---------|0----------------|-0-------------------0-|
                    # # # #            #      #
pre-chorus
e|-----------|-----------------------------|-----|
B|-----------|--------------------------x2-|-----|
G|-9---------|-9---------------------------|-----|
D|-9-9-7-6-4-|-9-9-7----7-7----7-7----7----|-7-7-|
A|-7-9-7-6-4-|-7-9-7----7-7----7-7----7----|-7-7-|
E|---7-5-4-2-|---7-5-x2-5-5-x2-5-5-x2-5----|-5-5-|
                   #      #      #
chorus
e|-----------|-----------------|-----------------------|-----------|-----|
B|-----------|--------------x2-|-----------------------|-----------|-----|
G|---4-2-6-4-|--4-2-6-6-4-4----|---4-2-6----6-4----4---|-6----4----|-----|
D|-2-4-2-6-4-|2-4-2-6-6-4-4----|-2-4-2-6----6-4----4-2-|-6----4----|-2---|
A|-2-2-0-4-2-|2-2-0-4-4-2-2----|-2-2-0-4-x2-4-2-x2-2-2-|-4-x2-2-x2-|-2---|
E|-0---------|0----------------|-0-------------------0-|-----------|-0-x8|
                    # # # #            #      #          #    #

2nd guitarist plays this while solo
e|-----------|-----------------------------|-----|
B|-----------|--------------------------x2-|-----|
G|-9---------|-9---------------------------|-----|
D|-9-9-7-6-4-|-9-9-7----7-7----7-7----7----|-7-7-|
A|-7-9-7-6-4-|-7-9-7----7-7----7-7----7----|-7-7-|
E|---7-5-4-2-|---7-5-x2-5-5-x2-5-5-x2-5----|-5-5-|
                   #      #      #

chorus
e|-----------|-----------------|-----------------------|-----------|-----|
B|-----------|--------------x2-|-----------------------|-----------|-----|
G|---4-2-6-4-|--4-2-6-6-4-4----|---4-2-6----6-4----4---|-6----4----|-----|
D|-2-4-2-6-4-|2-4-2-6-6-4-4----|-2-4-2-6----6-4----4-2-|-6----4----|-2---|
A|-2-2-0-4-2-|2-2-0-4-4-2-2----|-2-2-0-4-x2-4-2-x2-2-2-|-4-x2-2-x2-|-2---|
E|-0---------|0----------------|-0-------------------0-|-----------|-0-x8|
                    # # # #            #      #          #    #

outro
e|-------------------------------|------------------------------|
B|-------------------------------|------------------------------|
G|-------------------------------|--------------------6-8-9-8-6-|
D|-----6-6-6h9p6-----9-6---------|-----6-6-6h9p6----9-----------|
A|-7h9-----------9-9-----9-7-----|-7h9-----------9-9------------|
E|---------------------------9-7-|------------------------------|
            
Tabs too difficult? Try these video lessons and learn fast.




comments powered by Disqus
↑ Back to top | Tablatures and chords are parodies/interpretations of the original songs. You may use it for private study, scholarship, research or language learning purposes only