» » »

My Heart Will Go On Tabs (ver.2)

Artists:  A B C D E F G H I J K L M N O P Q R S T U V W X Y Z # 

My Heart Will Go On Tabs (ver.2)

New Found Glory
Rating:
0/5 (0 votes)

Tabs too difficult? Try these video lessons and learn fast.
                h-hammer on    p-pull off 
/-slide up    \-slide down 
pm-palm mute    b-bend (whole step) 
~-let ring


INTRO

E|-------------------------------------------------------------
B|-------------------------------------------------------------
G|-------------------------------------------------------------
D|----------------------------------9-------------------------- 
A|---7h9---9/11---11---11p9\7---9---------11--9--7------------- 
E|--------------------------------------------------9---7------ 


E|-------------------------------------------------------------
B|-------------------------------------------------------------
G|-------------------------------------------------------------
D|------------------------------------9---7h9--/11--11--11----- 
A|---7h9---9/11---11---11p9\7---9---------------------------9~- 
E|------------------------------------------------------------- 

VERSE 1

E|---------------------------------------------------------
B|---------------------------------------------------------
G|---------------------------------------------------------
D|-9-9-9-9-9-9-------------------------------9-9-9--------- 
A|-7-7-7-7-7-7---9-9-9-9-9-9---7-7-7-7-7-7---7-7-7---9-9-9- 
E|---------------7-7-7-7-7-7---5-5-5-5-5-5-----------7-7-7- 
pm * *   * *     * *   * *     * *   * *     * *     * *


E|--------------------------------------------------------
B|--------------------------------------------------------
G|--------------------------------------------------------
D|-9-9-9-9-9-9-------------------------------------------- 
A|-7-7-7-7-7-7---9-9-9-9-9-9---7-7-7-7-7-7-7-7-7-7-7-7---- 
E|---------------7-7-7-7-7-7---5-5-5-5-5-5-5-5-5-5-5-5---- 
pm * *   * *     * *   * *     * *   * *   * *   * *


CHORUS                                  

E|-------------------------------
B|-------------------------------
G|-------------------------------
D|----------4-4-44---2-2---6---4-  
A|-2-2-22---2-2-22---0-0---4---2-   
E|-0-0-00------------------------   


E|----------------------------------
B|----------------------------------
G|----------------------------------
D|---------4-4-44--2-2--6-6--4-4---- 
A|-2-2-22--2-2-22--0-0--4-4--2-2--2- 
E|-0-0-00-------------------------0- 
pm                      * *  * *


VERSE2
same as verse 1 but with pm only over the A5 power chord (5 over 7) 

bridge (after the chorus has been played twice) 

E|-----------------------------------------------------
B|-----------------------------------------------------
G|-----------------------------------------------------
D|------6--------4------------------------------------- 
A|-4-4------2-2------2-2-2-2-2-2-2-2-2-2-2-2-2-2-2-2--- 
E|-------------------0-0-0-0-0-0-0-0-0-0-0-0-0-0-0-0---
pm                   * * * * * * * * * * * * * * * * 

solo (the intro really fast) 

back to chorus 

outro (only the first half of the intro)
            
Tabs too difficult? Try these video lessons and learn fast.


comments powered by Disqus
↑ Back to top | Tablatures and chords are parodies/interpretations of the original songs. You may use it for private study, scholarship, research or language learning purposes only