» » »

Hit Or Miss Tabs (ver.3)

Artists:  A B C D E F G H I J K L M N O P Q R S T U V W X Y Z # 

Hit Or Miss Tabs (ver.3)

New Found Glory
Rating:
0/5 (0 votes)

Tabs too difficult? Try these video lessons and learn fast.
                - HELP:      


intro:
e|--------------------------------------------------------------------|
B|--------------------------------------------------------------------|
G|--------------------------------------------------------------------|
D|-9-9----------------------------------------------------------------|
A|-7-7---9-9---11-11--7-7---------------------------------------------|
E|-----x-7-7-x-9--9-x-5-5---------------------------------------------|
Chorus: guitar 1 plays intro, guitar 2 plays this
e|--------------------------------------------------------------------|
B|--------------------------------------------------------------------|
G|--------------------------------------------------------------------|
D|-9-9-------------------------999-11/11/11/-13-13-13-11/11/11--------|
A|-7-7-x-9-9---11-11--7-7------777-9-/9/-9-/-11-11-11-9--9--9---------|
E|-------7-7-x-9--9-x-5-5—(2x) ---------------------------------------|
(both guitars)
e|--------------------------------------------------------------------|
B|--------------------------------------------------------------------|
G|--------------------------------------------------------------------|
D|-9------------------------------------------------------------------|
A|-7-9-7--------------------------------------------------------------|
E|---7-5--------------------------------------------------------------|
Verse: guitar 1
e|--------------------------------------------------------------------|
B|--------------------------------------------------------------------|
G|--------------------------------------------------------------------|
D|----9---------9999--------------------------------------------------|
A|--xx7-(14x)-xx7777--------------------------------------------------- 
Verse: guitar 2 
e|--------------------------------------------------------------------|
B|--------------------------------------------------------------------|
G|--------------------------------------------------------------------|
D|----9--------------------9---------------------9999-----------------|
A|-pm-7(8x)9----11----9----7(8x)9----11----9-----7777-----------------|
E|---------7(8x)9-(8x)7(8x)-----7(8x)9-(8x)7(2x)----------------------|
both guitars
e|--------------------------------------------------------------------|
B|--------------------------------------------------------------------|
G|--------------------------------------------------------------------|
D|-9------------------------9--------------------9999-----------------|
A|-7-(5x)-9----11---9-------7(5x)9----11----9----7777-----------------|
E|--------7(5x)9(5x)7(5x)--------7(5x)9-(5x)7(2x)---------------------|
Verse Part 2: guitar 1
e|--------------------------------------------------------------------|
B|--------------------------------------------------------------------|
G|--------------------------------------------------------------------|
D|---9-------9999---------------------9-------------------------------|
A|-xx7(2x)-xx7777-repeat this 3x then-7-9-7---------------------------|
E|--------------------------------------7-5---------------------------|

Verse Part 2: guitar 2
e|--------------------------------------------------------------------|
B|--------------------------------------------------------------------|
G|--------------------------------------------------------------------|
D|----9-----------------------9999----------------------9-------------|
A|-pm-7(4x)9----11------------7777----------------------7-9-7---------|
E|---------7(4x)9-(2x)stop pm------repeat 3x-then this----7-5---------|

Bridge: both guitars
e|--------------------------------------------------------------------|
B|--------------------------------------------------------------------|
G|--------------------------------------------------------------------|
D|-------------------------------------------------------------11---9-|
A|-2-----9----11----9-----------------------2----9----11-------9-11-7-|
E|-0(5x)-7(5x)9-(5x)7(5x) play this 3x then-0(5x)7(5x)9-(5x)-x---9----|
Outro: guitar 1 plays chorus guitar 2 does this
e|--------------------------------------------------------------------|
B|--------------------------------------------------------------------|
G|--------------------------------------------------------------------|
D|-9-9-9-9-11/11/13-13----------------------------9-------------------|
A|-7-7-7-7-9--9--11-11—play this three times then 7-9-7---------------|
E|--------------------------------------------------7-5---------------|

Play order
Intro
Chorus
Verse
Verse Part 2
Chorus
Verse
Verse Part 2
Chorus
Bridge
Chorus
Outro
            
Tabs too difficult? Try these video lessons and learn fast.




comments powered by Disqus
↑ Back to top | Tablatures and chords are parodies/interpretations of the original songs. You may use it for private study, scholarship, research or language learning purposes only