» » »

Hit Or Miss Tabs (ver.1)

Artists:  A B C D E F G H I J K L M N O P Q R S T U V W X Y Z # 

Hit Or Miss Tabs (ver.1)

New Found Glory
Rating:
0/5 (0 votes)

Tabs too difficult? Try these video lessons and learn fast.
                
Song - Hit or Miss
Band - New Found Glory
Album - New Found Glory
Tunning - Standard

x - palm mute
~ - let ring

This is new version of Hit Or Miss on the new New Found Glory album.

Guitar 1 Intro Part One 			Guitar 2 Intro Part One
e --------------------------------------|	e--------|
b --------------------------------------|	g--------|
g ---9-9-9------------------------------|	d---9~---|
d ---9-9-9---9-9-9---11-11-11---7-7-7---| x3	a---9~---|  (pick screech)
a ---7-7-7---9-9-9---11-11-11---7-7-7---|	a---7~---|
E -----------7-7-7----9--9--9---5-5-5---|	E--------|
         x       x          x       x

Guitar 1 during pick screech
e-----------------------------------------|
B-----------------------------------------|
G---9-9-9-9-------------------------------|
D---9-9-9-9-9-9-9-9-11-11-11-11-7-7-7-7---|
A---7-7-7-7-9-9-9-9--9--9--9--9-7-7-7-7---|
E-----------7-7-7-7--9--9--9--9-5-5-5-5---|
    x x x x x x x x  x  x  x  x x x x x

Both guitars after pick screech
e--------------------------------|
B--------------------------------|
G---9-9-9------------------------|
D---9-9-9-9-9-9-11-11-11-7-7-7---|   x2
A---7-7-7-9-9-9-11-11-11-7-7-7---|
E---------7-7-7--9--9--9-5-5-5---|
        x     x        x     x

Both Guitars 				          Guitar 2          Guitar 1
e -----------------------------------------|	e-------------|	e------------|
b -----------------------------------------|	b-------------|	b------------|
g ---9-9-9---11-11-11---13-13-13---7-7-7---|	g---9---------|	g------------|
d ---9-9-9---11-11-11---13-13-13---7-7-7---|	d---9--9--7~--|	d-----9------|
a ---7-7-7----9--9--9---11-11-11---5-5-5---|	a---7--9--7~--|	a---7---7~---|
E------------------------------------------|	E------7--5~--|	E------------|
         x          x          x        x

Verse
e -------------------------------------------------------------------------------------------------------------------------------------------|
b -------------------------------------------------------------------------------------------------------------------------------------------|
g ---9-9-9---9-9-9---------------------------------------------------------9-9-9---9-9-9-----------------------------------------------------|
d ---9-9-9---9-9-9---9-9-9---9-9-9---11-11-11---11-11-11---7-7-7---7-7-7---9-9-9---9-9-9---9-9-9---9-9-9---11-11-11---11-11-11---7-7-7-7-7-7-|
a ---7-7-7---7-7-7---9-9-9---9-9-9---11-11-11---11-11-11---7-7-7---7-7-7---7-7-7---7-7-7---9-9-9---9-9-9---11-11-11---11-11-11---7-7-7-7-7-7-|
E -------------------7-7-7---7-7-7----9--9--9----9--9--9---5-5-5---5-5-5-------------------7-7-7---7-7-7----9--9--9----9--9--9---5-5-5-5-5-5-|
     x x     x x     x x     x x      x  x       x  x      x x     x x     x x     x x     x x     x x      x  x       x  x
          The needle on my record player...
PreChorus
e---------------------------------------------------------------------------------------------------------------------------------|
b---------------------------------------------------------------------------------------------------------------------------------|
g---------------------------------------------------------------------------------------------------------------------------------|
d---2-2-2--2-2-2---9-9-9--9-9-9---11-11-11--11-11-11---7-7-7--7-7-7------2-2-2---9-9-9--9-9-9---11-11-11--11-11-11---7-7-7--7-7-7-|
a---2-2-2--2-2-2---9-9-9--9-9-9---11-11-11--11-11-11---7-7-7--7-7-7------2-2-2---9-9-9--9-9-9---11-11-11--11-11-11---7-7-7--7-7-7-|
E---0-0-0--0-0-0---7-7-7--7-7-7----9--9--9---9--9--9---5-5-5--5-5-5------0-0-0---7-7-7--7-7-7----9--9--9---9--9--9---5-5-5--5-5-5-|
         No more long rides home....
e---------------------------|		e-------------------|
b---------------------------|		b-------------------|
g---9-9-9---9-9-9-----------|		g---9-9-9-----------|
d---9-9-9---9-9-9-----9-----| x3         d---9-9-9-9-9-9-7---|
a---7-7-7---7-7-7---7---7---|		a---7-7-7-9-9-9-7---|
E---------------------------|		E---------7-7-7-5---|
    x x     x x    
    Remember the time...                Thriller was our...
Chorus       Both                                  Guitar 2              Guitar 1
e-----------------------------------|	 e-------------------------|   e-----------|
b-----------------------------------|	 b-------------------------|   b-----------|
g---9-9-9---------------------------|	 g---9---------------------|   g-----------|
d---9-9-9--9-9-9--11-11-11--7-7-7---| x3  d---9-9-7-7-7-7-7-7-7-7---|   d-----9-----|
a---7-7-7--9-9-9--11-11-11--7-7-7---|	 a---7-9-7-7-7-7-7-7-7-7---|   a---7---7---|
E----------7-7-7---9--9--9--5-5-5---|	 E-----7-5-5-5-5-5-5-5-5---|   E-----------|
                                                  x x x x x x x x
     Have i waited too long...                 To see you
                                         Guitar 2	   Guitar 1
e-----------------------------------|	 e-------------|   e------------|
b-----------------------------------|	 b-------------|   b------------|
g---9-9-9---------------------------|	 g---9---------|   g------------|
d---9-9-9--9-9-9--11-11-11--7-7-7---| x3   d---9--9--7~--|   d-----9------|
a---7-7-7--9-9-9--11-11-11--7-7-7---|	 a---7--9--7~--|   a---7---7~---|
E----------7-7-7---9--9--9--5-5-5---|	 E------7--5~--|   E------------|
     Have i waited too long...                  To see you
Bridge
e--------------------------------------------------------|
b--------------------------------------------------------|
g----------------4-4-4--4--4--6-6-6--6--6--2-2-2--2--2---|
d---2-2-2--2--2--4-4-4--4--4--6-6-6--6--6--2-2-2--2--2---|  x3
a---2-2-2--2--2--2-2-2--2--2--4-4-4--4--4--0-0-0--0--0---|
E---0-0-0--0--0------------------------------------------|
    x            x            x            x
         How many times i've tried...
							Guitar 2
e---------------------------------------------------|	e--------|
b---------------------------------------------------|	g--------|
g----------------4-4-4--4--4--6-6-6--6--6--9--------|	d---9~---|
d---2-2-2--2--2--4-4-4--4--4--6-6-6--6--6--9-9-7~---|	a---9~---|  (pick screech)
a---2-2-2--2--2--2-2-2--2--2--4-4-4--4--4--7-9-7~---|	a---7~---|
E---0-0-0--0--0------------------------------7-5~---|	E--------|
    x            x            x
                                        ...your design
Repeat Guitar 1 Intro Part Two (during pick screech)
Repeat Chorus

Hit or Miss is an awsome song, if you repeat everything once done 
with the first chorus you'll get to the bidge. If you wanted 
lyrics too, here they are:

The needle on my record player
Has been wearing thin
This record has been playing
Since the day you've been with him
No more long rides home
No more of your station
I didn't like it anyway
Remember the time we wrote our names upon the wall
Remember the time we realized thriller was our favorite song
Have i waited too long
Have i found that someone
Have i waited too long
To see you
Maybe it's for the best
Maybe it's not for anything
It wouldn't be so bad
To take this right from me
How many times i've tried
It's so simple to you so simple to lie
How many times I've tried
Blatant mistakes of your design
How many times I've tried
So simpe to you so simple to lie
Blatant mistakes of your design
I've had so many chances
Turned my back and i ranaway
I've had so many chances
To see you

~Dolphskie~
            
Tabs too difficult? Try these video lessons and learn fast.


comments powered by Disqus
↑ Back to top | Tablatures and chords are parodies/interpretations of the original songs. You may use it for private study, scholarship, research or language learning purposes only