» » »

Head On Collission Tabs (ver.2)

Artists:  A B C D E F G H I J K L M N O P Q R S T U V W X Y Z # 

Head On Collission Tabs (ver.2)

New Found Glory
Rating:
0/5 (0 votes)

Hard to play? Try these video lessons and learn fast.
                standard tuning 
this is a a good tab i think...there shouldn't be n e thing wrong with it

this is really about all u need to know about this song to play it...if u haven't heard the song yet then u'll have a hard time trying to play this tab...enjoy (and take it easy on me this is my first tab)

intro:	
E|--------------------------------------------|
B|--------------------------------------------|
G|--------------------------------------------|
D|--------------------------------------------|
A|---5-4-5-7-5-4-5-4-5-4-5-7-5-4-5-4----------|
E|--------------------------------------------|

chorus:
E|-----------------------------------------------------------------|
B|-----------------------------------------------------------------|
G|-------4--7-7-7-7-7-7--------------------------------------------|
D|----7--4--7-7-7-7-7-7--------------------------------------------|
A|----7--2--5-4-5-4-5-4--------------------------------------------|
E|----5------------------------------------------------------------|

main riff:
E|			|
B|			|
G|			|
D|	7	4	|
A|	7	4	|
E|	5	2	|

then the part where it goes...and it feels like......
E|		|
B|		|
G|		|
D|	2	|
A|	2	|
E|		|

solo:
E|					|
B|					|
G|					|
D|	7 7				|
A|	7 7-0-4-0-7-0-4-4/5-4p0-2-0		|
E|	5 5		         4/5-4/5	|
            
Hard to play? Try these video lessons and learn fast. | Correct




comments powered by Disqus
↑ Back to top | Tablatures and chords are parodies/interpretations of the original songs. You may use it for private study, scholarship, research or language learning purposes only