» » »

Head On Collission Tabs (ver.1)

Artists:  A B C D E F G H I J K L M N O P Q R S T U V W X Y Z # 

Head On Collission Tabs (ver.1)

New Found Glory
Rating:
0/5 (0 votes)

Tabs too difficult? Try these video lessons and learn fast.
                ~ = let ring
p.m = palm mute
h = hammer on

Intro:
|-------------------------------|
|-------------------------------|
|-------------------------------|
|-------------------------------|
|-5-4-5-7-5-4-5-----5-4-5-7-5-4-|
|-------------------------------|

Pre Verse/Chorus:

1 guitar:
|------------------------|
|------------------------|
|-----------777666777666-|
|-----------777777777777-|
|-7~-9~-----555555555555-|
|-5~-7~------------------|


1 guitar:                  
|------------ 
|------------ 
|------------ 
|------------ 
|-7~-9~---- 
|-5~-7~---- continue...
               
                             2 guitar:
   --------------|                |-------------------------------|
   --------------|                |-------------------------------|
   --------------|                |-------------------------------|
   -777777777777-| (play at       |-------------------------------|
   -777777777777-| the same time) |-------------------------------|
...-555555555555-|                |-5-4-5-7-5-4-5-----5-4-5-7-5-4-|
   --------------|                |-------------------------------|
 


Verse (clean guitar):
|-00----00-------00-----00-|
|-00----00-------00-----00-|
|-22----22-------22-----22-|
|-22----22-------22-----22-| x2 and then a very very low guitar goes with the rythme
|-00----00-------xx-----xx-|
|----------------22-----22-|


Pre Chorus (it feels like i'm at an all time low...):

|-------------------|
|-------------------|
|-------------------|
|-2222222-222222222-|
|-2222222-222222222-|
|-0000000-000000000-|
         (---p.m---)


PRE VERSE/CHORUS x2
VERSE 
PRE CHORUS 
PRE VERSE/CHORUS x2
 

Solo:

1 guitar:
|---------------------------------------------|
|--------5------------------------------------|
|----6-------6--6h7-6-------------------------|
|--7---7---7------------7-9-7-----6h7-----6h7-| x4
|---------------------7--------55------77-----|
|---------------------------------------------|

2 guitar:
|---------------------------------------------|
|---------------------------------------------|
|--------------------999999999-7777777-999999-|
|--7777777777777777--999999999-7777777-999999-| x4
|--7777777777777777--777777777-5555555-777777-|
|--5555555555555555---------------------------|
 (-------------------p.m---------------------)

1 and 2 guitar (you can play both if you want):
|-------------------------|
|-------------------------|
|-77777777----------------|
|-77777777-----6h7----6h7-| x2
|-55555555--55-----77-----|
|-------------------------|

|----------|
|----------|
|-77777777-|
|-77777777-|
|-55555555-|
|----------|

Pre Chorus:
|-------------------------|
|-------------------------|
|-------------------------|
|-2222222--22-2-22-2-22-2-|
|-2222222--22-2-22-2-22-2-|
|-0000000--00-0-00-0-00-0-|
          (-----p.m------)


Shut up (only voice part)

PRE VERSE/CHORUS x2

Then:

1 guitar:
|--------------------|
|--------5-----------|
|----6-------6-6h7-6-|
|--7---7---7---------| x6
|--------------------|
|--------------------|

2 guitar:
|--------------------------|
|--------------------------|
|-------------777777777777-|
|-------------777777777777-| x3
|-777-999-----555555555555-|
|-555-777------------------|


end:

1 guitar:
|---------------------------|
|---------------------------|
|-------------777666777666--|
|-------------777777777777--|
|-77-9999-----555555555555--|
|-55-7777-------------------|

|--------------|              |-------------------------------|
|--------------|              |-------------------------------|
|-777666777666-|(play at the  |-------------------------------|
|-777777777777-| same time)   |-------------------------------|
|-555555555555-|              |-5-4-5-7-5-4-5-----5-4-5-7-5-4-| 
|--------------|              |-------------------------------| 


end on:
|----|
|----|
|-2~-|
|-2~-|
|-0~-|
|----|
            
Tabs too difficult? Try these video lessons and learn fast.




comments powered by Disqus
↑ Back to top | Tablatures and chords are parodies/interpretations of the original songs. You may use it for private study, scholarship, research or language learning purposes only