» » »

Eyesore Tabs (ver.2)

Artists:  A B C D E F G H I J K L M N O P Q R S T U V W X Y Z # 

Eyesore Tabs (ver.2)

New Found Glory
Rating:
0/5 (0 votes)

Tabs too difficult? Try these video lessons and learn fast.
                Tuning: DADGBe  (Drop-D)

This song isn’t very hard... I think I got it right... send corrections!

INTRO/VERSE
GUITAR 1
        I MISS YOU. . .    THOSE WORDS. . .    I AM HOME. . .  THE RINGS
-----------------------------------------------6-----------------------9------
----7----------------------4-------------------6-----------------------9------
----7----------------------4-------------------4-----------------------7------
----7----------------------4--------------------------------------------------
                                                                              


GUITAR 2        
-----------------------------------------------6---------6-/-7----6----4------
----7----------------------4-------------------6---------6-/-7----6----4------
----7----------------------4-------------------4---------4-/-5----4----2------
----7----------------------4--------------------------------------------------
                                                                              

PRE CHORUS
GUITAR 1

     SAAAAAAAAAAAAAY   YOUR NAAAAAAAAME  WHEN I FALL WHEN I HIT THE BOTTOM
-----4-4-4-4-4-4-4-4---0-0-0-0-0-0-0-0---xxxx--7---xxxx--7---2----------------
-----4-4-4-4-4-4-4-4---0-0-0-0-0-0-0-0---xxxx--7---xxxx--7---2----------------
-----4-4-4-4-4-4-4-4---0-0-0-0-0-0-0-0---xxxx--7---xxxx--7---2----------------
                                                                              


GUITAR 2

---------------------------------------------------------3--1-|---6-----------
-----2---2/3\2-0-3------2---2-3-2-0------------0--2-----------|-----5--3--2---
-------2------------------2---------3------3------------------|---------------
--------------------------------------------------------------|---------------
--------------------------------------------------------------|---------------
--------------------------------------------------------------|---------------
                                                                              

CHORUS
GUITAR 1

  GO GIRL   PLAY ON   THE BOYS WILL STAY      EVEN IF YOUR GONE
-------------------------------------------|----------------------------------
-------------------------------------------|----------------------------------
-------------------------------------------|---x-7--x-6-----------------------
---7-7-xxx--12-12-xxx--4-4-4-4--0-0-0-0----|---x-7--x-6---7-------------------
---7-7-xxx--12-12-xxx--4-4-4-4--0-0-0-0----|---x-5--x-4---7-------------------
---7-7-xxx--12-12-xxx--4-4-4-4--0-0-0-0----|--------------7-------------------
                                                                              

GUITAR 2

-------------------------------------------|----------------------------------
-------------------------------------------|----------------------------------
-------------9-9-xxx-----------------------|---x-7--x-6-----------------------
---7-7-xxx---9-9-xxx---4-4-4-4--0-0-0-0----|---x-7--x-6---7-------------------
---7-7-xxx---7-7-xxx---4-4-4-4--0-0-0-0----|---x-5--x-4---7-------------------
---7-7-xxx-------------4-4-4-4--0-0-0-0----|--------------7-------------------
                                                                              

GUITAR 3

------------------------2b--2b--2b--2b--0-------------------------------------
-------------------------------------------3----------------------------------
                                                                              

GUITAR 3 CONTD. . .

-------------5------5-----2/3/2--0--------------------------------------------
---------3------3------3-------------3----------------------------------------
                                                                              

THEN GO INTO INTRO/VERSE

THEN PRE CHORUS

THEN CHORUS

INTERLUDE (NO GUITAR)

THEN CHORUS AGAIN

THEN PRE CHORUS (GUITAR 2 ONLY FOR 2 TIMES… THEN 1 JOIN IN)
            
Tabs too difficult? Try these video lessons and learn fast.




comments powered by Disqus
↑ Back to top | Tablatures and chords are parodies/interpretations of the original songs. You may use it for private study, scholarship, research or language learning purposes only