» » »

Eyesore Tabs (ver.1)

Artists:  A B C D E F G H I J K L M N O P Q R S T U V W X Y Z # 

Eyesore Tabs (ver.1)

New Found Glory
Rating:
0/5 (0 votes)

Hard to play? Try these video lessons and learn fast.
                                                Eyesore

Just added the lead parts in

Verse
e|---------------------------------------------------------------------------|
B|---------------------------------------------------------------------------|
G|-----------------------------6~--------------------------------------------|
D|-7~------------4~------------6~------------2~------------7~----------------|
A|-7~------------4~------------4~------------2~------------7~----------------|
E|-5~------------2~--------------------------0~------------5~----------------|

e|---------------------------------------------------------------------------|
B|---------------------------------------------------------------------------|
G|---------------------------------------------------------------------------|
D|----------------------------------------------------2-2-2-2-x-x-x-x--------|
A|----------------------------------------------------2-2-2-2-x-x-x-x--------|
E|----------------------------------------------------0-0-0-0-x-x-x-x--------|

Chorus (guitar 1) x 2
e|---------------------------------------------------------------------------|
B|---------------------------------------------------------------------------|
G|------------------7-7-7-7-7-7-7-7------------------------------------------|
D|-4-4-4-4-4-4-4-4--7-7-7-7-7-7-7-7--7777-7--7777-7--2-2-2-2-2-2-2-2---------|
A|-4-4-4-4-4-4-4-4--5-5-5-5-5-5-5-5--7777-7--7777-7--2-2-2-2-2-2-2-2---------|
E|-2-2-2-2-2-2-2-2-------------------5555-5--5555-5--0-0-0-0-0-0-0-0---------|
                                     ****    ****

Chorus (guitar 2) x 2
e|---------------------------------------------6-----------------------------|
B|-2---2-3-2-0-3---2---2-3-2-0-------0-2---8-6---5-3-2-----------------------|
G|---2---------------2---------3---3-----------------------------------------|
D|---------------------------------------------------------------------------|
A|---------------------------------------------------------------------------|
E|---------------------------------------------------------------------------|

Post Chorus (guitar 1) x 2
e|---------------------------------------------------------------------------|
B|---------------------------------------------------------------------------|
G|----------7-7-x-x-----------7-7-7-7-7-7------------------------------------|
D|-7-7-x-x--7-7-x-x--4-4-4-4--7-7-7-7-7-7------------------------------------|
A|-7-7-x-x--5-5-x-x--4-4-4-4--5-5-5-5-5-5------------------------------------|
E|-5-5-x-x-----------2-2-2-2-------------------------------------------------|

e|---------------------------------------------------------------------------|
B|---------------------------------------------------------------------------|
G|----------7-7-x-x----------------------------------------------------------|
D|-7-7-x-x--7-7-x-x--4-4-4-4--2-2-2-2-2-2------------------------------------|
A|-7-7-x-x--5-5-x-x--4-4-4-4--2-2-2-2-2-2------------------------------------|
E|-5-5-x-x-----------2-2-2-2--0-0-0-0-0-0------------------------------------|

Post Chorus (guitar 2) x 2
e|---------------------------------------------------------------------------|
B|-----------------2b-2b-2b-0-------5----5----5----2/3\2--0------------------|
G|----------------------------3---3----3----3---3-----------3----------------|
D|---------------------------------------------------------------------------|
A|---------------------------------------------------------------------------|
E|---------------------------------------------------------------------------|

Verse

Chorus x 2

Bridge (quiet)
e|---------------------------------------------------------------------------|
B|---------------------------------------------------------------------------|
G|----------7---------------7----------------7-------------------------------|
D|-7--------7-------4-------7--------7-------7-------2-----------------------|
A|-7--------5-------4-------5--------7-------5-------2-----------------------|
E|-5----------------2----------------5---------------0-----------------------|

Chorus x 2

Post Chorus x 6
            
Hard to play? Try these video lessons and learn fast. | Correct




comments powered by Disqus
↑ Back to top | Tablatures and chords are parodies/interpretations of the original songs. You may use it for private study, scholarship, research or language learning purposes only