» » »

Dressed To Kill Tabs (ver.2)

Artists:  A B C D E F G H I J K L M N O P Q R S T U V W X Y Z # 

Dressed To Kill Tabs (ver.2)

New Found Glory
Rating:
0/5 (0 votes)
Tabs too difficult? Try these video lessons and learn fast.
                                     Dressed to Kill

Intro
e|---------------------------------------------------------------------------|
B|---------------------------------------------------------------------------|
G|---------------------------------------------------------------------------|
D|-0-0--2-2------------------------------------------------------------------|
A|-0-0--2-2------------------------------------------------------------------|
D|-0-0--2-2------------------------------------------------------------------|

Riff x 3
e|----12--10-9---------------------------------------------------------------|
B|-10------------------------------------------------------------------------|
G|---------------------------------------------------------------------------|
D|---------------------------------------------------------------------------|
A|---------------------------------------------------------------------------|
D|---------------------------------------------------------------------------|

Intro

Riff x 3

Verse x 4 (no pm on last time)
e|---------------------------------------------------------------------------|
B|---------------------------------------------------------------------------|
G|---------------------------------------------------------------------------|
D|-77-7-77-7--77-7-77-7--44-4-44-4--22-2-22-2--------------------------------|
A|-77-7-77-7--77-7-77-7--44-4-44-4--22-2-22-2--------------------------------|
D|-77-7-77-7--66-6-66-6--44-4-44-4--22-2-22-2--------------------------------|
   **   **    **   **    **   **    **   **

Pre Chorus x 4
e|---------------------------------------------------------------------------|
B|---------------------------------------------------------------------------|
G|---------------------------------------------------------------------------|
D|-0-0-0-0--4-4--2-2---------------------------------------------------------|
A|-0-0-0-0--4-4--2-2---------------------------------------------------------|
D|-0-0-0-0--4-4--2-2---------------------------------------------------------|

Chorus x 4
e|---------------------------------------------------------------------------|
B|---------------------------------------------------------------------------|
G|---------------------------------------------------------------------------|
D|-7-7-7-7--7-7-7-7--4-4-4-4--0-0-2-2----------------------------------------|
A|-7-7-7-7--7-7-7-7--4-4-4-4--0-0-2-2----------------------------------------|
D|-7-7-7-7--6-6-6-6--4-4-4-4--0-0-2-2----------------------------------------|

Verse x 4

Pre Chorus x 4

Chorus x 4







Interlude
e|---------------------------------------------------------------------------|
B|---------------------------------------------------------------------------|
G|---------------------------------------------------------------------------|
D|-4----2---4--6--7----------------------------------------------------------|
A|-4----2---4--6--7----------------------------------------------------------|
D|-4----2---4--6--7----------------------------------------------------------|

Bridge x 4
e|---------------------------------------------------------------------------|
B|---------------------------------------------------------------------------|
G|---------------------------------------------------------------------------|
D|-7--6--0-0-0-0-0-0-0-0-----------------------------------------------------|
A|-7--6--0-0-0-0-0-0-0-0-----------------------------------------------------|
D|-7--6--0-0-0-0-0-0-0-0-----------------------------------------------------|

Chorus x 4

Finish (interlude)
            
Tabs too difficult? Try these video lessons and learn fast.


comments powered by Disqus
↑ Back to top | Tablatures and chords are parodies/interpretations of the original songs. You may use it for private study, scholarship, research or language learning purposes only