» » »

Boy Crazy Tabs (ver.1)

Artists:  A B C D E F G H I J K L M N O P Q R S T U V W X Y Z # 

Boy Crazy Tabs (ver.1)

New Found Glory
Rating:
5/5 (2 votes)
Tabs too difficult? Try these video lessons and learn fast.
                                               Boy Crazy

Intro/Verse x 6
e|---------------------------------------------------------------------------|
B|---------------------------------------------------------------------------|
G|-2-2--2-2----6-6--7-7------------------------------------------------------|
D|-2-2--2-2----6-6--7-7----4-4--4-4----2-2--2-2------------------------------|
A|-0-0--0-0----4-4--5-5----4-4--4-4----2-2--2-2------------------------------|
E|-------------------------2-2--2-2----0-0--0-0------------------------------|

Pre Chorus x 1
e|---------------------------------------------------------------------------|
B|---------------------------------------------------------------------------|
G|-777777777777777--6666666666666666--------------------7777777777777777-----|
D|-777777777777777--6666666666666666--7777777777777777--7777777777777777-----|
A|-555555555555555--4444444444444444--7777777777777777--5555555555555555-----|
E|------------------------------------5555555555555555-----------------------|
   ***************  ****************  ****************  ****************

e|---------------------------------------------------------------------------|
B|---------------------------------------------------------------------------|
G|-111111111111111111111111--13131313--14141414141414141414141414141414------|
D|-111111111111111111111111--13131313--14141414141414141414141414141414------|
A|--9-9-9-9-9-9-9-9-9-9-9-9--11111111--12121212121212121212121212121212------|
E|---------------------------------------------------------------------------|

e|---------------------------------------------------------------------------|
B|---------------------------------------------------------------------------|
G|-2-2-44467-----------------------------------------------------------------|
D|-2-2-44467-----------------------------------------------------------------|
A|-0-0-22245-----------------------------------------------------------------|
E|---------------------------------------------------------------------------|

Chorus x 1
e|---------------------------------------------------------------------------|
B|---------------------------------------------------------------------------|
G|-2-2-2-2-2-2--7-7-7-7-7-7---------------7-7-7-7-7-7------------------------|
D|-2-2-2-2-2-2--7-7-7-7-7-7--7-7-7-7-7-7--7-7-7-7-7-7------------------------|
A|-0-0-0-0-0-0--5-5-5-5-5-5--7-7-7-7-7-7--5-5-5-5-5-5------------------------|
E|---------------------------5-5-5-5-5-5-------------------------------------|

e|---------------------------------------------------------------------------|
B|---------------------------------------------------------------------------|
G|-2-2-2-2-2-2--7-7-7-7-7-7---------------7-7-7-7-7-7--2---------------------|
D|-2-2-2-2-2-2--7-7-7-7-7-7--7-7-7-7-7-7--7-7-7-7-7-7--2---------------------|
A|-0-0-0-0-0-0--5-5-5-5-5-5--7-7-7-7-7-7--5-5-5-5-5-5--0---------------------|
E|---------------------------5-5-5-5-5-5-------------------------------------|

Verse x 6

Pre Chorus x 1

Chorus x 1






Solo x 4
e|-------1-------1-----------------------------------------------------------|
B|-2p1h2---1h2p1-------------------------------------------------------------|
G|---------------------------------------------------------------------------|
D|---------------------------------------------------------------------------|
A|---------------------------------------------------------------------------|
E|---------------------------------------------------------------------------|

Bridge
e|---------------------------------------------------------------------------|
B|---------------------------------------------------------------------------|
G|----------------------------------------------------7-7-7-7--7-7-7-7-------|
D|-2-2-2-2-2-2-2-2--7-7-7-7-7-7-7-7-------------------7-7-7-7--7-7-7-7-------|
A|-0-0-0-0-0-0-0-0--5-5-5-5-5-5-5-5--7-7-7-7-7-7-7-7--5-5-5-5--5-5-5-5-------|
E|-----------------------------------5-5-5-5-5-5-5-5-------------------------|
   * * * * * * * *  * * * * * * * *  * * * * * * * *

Chorus

Solo x 4

Finish
e|---------------------------------------------------------------------------|
B|---------------------------------------------------------------------------|
G|-2-2---2-2-----------------------------------------------------------------|
D|-2-2---2-2-----------------------------------------------------------------|
A|-0-0---0-0-----------------------------------------------------------------|
E|---------------------------------------------------------------------------|
            
Tabs too difficult? Try these video lessons and learn fast.


comments powered by Disqus
↑ Back to top | Tablatures and chords are parodies/interpretations of the original songs. You may use it for private study, scholarship, research or language learning purposes only