» » »

Black And Blue Tabs (ver.2)

Artists:  A B C D E F G H I J K L M N O P Q R S T U V W X Y Z # 

Black And Blue Tabs (ver.2)

New Found Glory
Rating:
5/5 (1 vote)

Tabs too difficult? Try these video lessons and learn fast.
                "Black and Blue" - A New Found Glory

Intro
e|---------------------------------|
B|---------------------------------|
G|---------------------------------|
D|----------6---4----------6--4----|
A|---7---6--4---2---7---6--4--2----|
E|---5---4----------5---4----------|

Verse
e|---------------------------------|
B|---------------------------------|
G|---------------------------------|
D|--------6------------------------|
A|----2---4---7--------------------|
E|----0-------5--------------------|

Chorus
e|---------------------------------|
B|---------------------------------|
G|---------------------------------|
D|-----6---------6-----------------|
A|-----4--2---7--4---2--7--6-------|
E|--------0---5------0--5--4-------|

Post-Chorus
e|---------------------------------|
B|---------------------------------|
G|---------------------------------|
D|---6-----------------------------|
A|---4---2---7---------------------|
E|-------0---5---------------------|

Verse
e|---------------------------------|
B|---------------------------------|
G|---------------------------------|
D|-------6-------------------------|
A|---2---4---7---------------------|
E|---0-------5---------------------|
            
Tabs too difficult? Try these video lessons and learn fast.


comments powered by Disqus
↑ Back to top | Tablatures and chords are parodies/interpretations of the original songs. You may use it for private study, scholarship, research or language learning purposes only