» » »

Belated Bass tabs (ver.2)

Artists:  A B C D E F G H I J K L M N O P Q R S T U V W X Y Z # 

Belated Bass tabs (ver.2)

New Found Glory
Rating:
0/5 (0 votes)

Tabs too difficult? Try these video lessons and learn fast.
                A New Found Glory
"Belated"
Sticks And Stones (Track 11)
Standard Tuning (EADG)

Intro:
G---
D---
A---
E-0~

Verse: {0:15} (x4)
G------------------------------------
D------------------------------------
A------------------------------------
E-0-00-000-2-22-222-4-44-444-2-22-222

Chorus: (x2)
G--------------------------------
D-2>>----------------------------
A-----0>>-----0>>-----0>>-----0>>
E---------2>>-----0>>-----2>>----

Then Play:
{0:56}            {1:01}
E--0-----------------0--

{1:06} Verse

{1:27} Chorus (x2)

Bridge: {1:47}
G-------------------------------------------4-----4----------
D------------------------------------------------------------
A-------------2222222/14-14-14\2--------------------22222222>
E-2>>-5>>-0>>-------------------2>>-5>>-0000-00000-0---------

{2:13}
G------------------------
D------------------------
A-----------------2222-22
E-0----------------------

{2:18} Chorus (x4)

Ending: {3:00}
G-------------
D-------------
A-------------
E-55555-5-5--0


Please rate it if you like it. Email me with any questions.
            
Tabs too difficult? Try these video lessons and learn fast.


comments powered by Disqus
↑ Back to top | Tablatures and chords are parodies/interpretations of the original songs. You may use it for private study, scholarship, research or language learning purposes only