» » »

Back That Ass Up Tabs (ver.2)

Artists:  A B C D E F G H I J K L M N O P Q R S T U V W X Y Z # 

Back That Ass Up Tabs (ver.2)

New Found Glory
Rating:
0/5 (0 votes)

Tabs too difficult? Try these video lessons and learn fast.
                Back that ass up
A New Found Glory

Background: 
e---------------------------------------| 
B---10-10—-8—--—---8-10-11-10-8---------|
G-------------10-----------------10-----|
D---------------------------------------|
A---------------------------------------|
E---------------------------------------|


e--------------------------------|
B---10-10—-8—--—---8-10-8--------|
G------------10-----------10-9---|
D-----------------------------10-|
A--------------------------------|
E--------------------------------|




Intro:
e|-------------|---------|
B|-------------|---------|
G|-------------|---------|
D|-*-7--5--3-*-|---------|
A|---5--3--1---|-3-3/-5~-|
E|-------------|-5-5/-7~-|

Verse 1:
e|-------------------|-------------------|
B|-------------------|-------------------|
G|-------------------|-------------------|
D|-"-7-7--5--3-3-3-"-|----------------5~-|
A|---5-5--3--1-1-1---|-3-3-3/--5-5-5--7~-|
E|-------------------|-5-5-5/--7-7-7-----|

Verse 2:
e|-------------------|-------------------|
B|-------------------|-------------------|
G|-------------------|-------------------|
D|-*-7-7--5--3-3-3-*-|----------------5~-|
A|---5-5--3--1-1-1---|-3-3-3/--5-5-5--7~-|
E|-------------------|-5-5-5/--7-7-7-----|many times

And after play it:
e|---------------|
B|---------------|
G|---------------|
D|-7--5--3--5--7-|
A|-5--3--1--3--5-|
E|---------------|

And then
e|-------------------|-------------------|
B|-------------------|-------------------|
G|-------------------|-------------------|
D|-*-7-7--5--3-3-3-*-|----------------5~-|
A|---5-5--3--1-1-1---|-3-3-3/--5-5-5--7~-|
E|-------------------|-5-5-5/--7-7-7-----|Til the end
            
Tabs too difficult? Try these video lessons and learn fast.


comments powered by Disqus
↑ Back to top | Tablatures and chords are parodies/interpretations of the original songs. You may use it for private study, scholarship, research or language learning purposes only