» » »

Turn Away Bass tabs (ver.1)

Artists:  A B C D E F G H I J K L M N O P Q R S T U V W X Y Z # 

Turn Away Bass tabs (ver.1)

Andy Timmons
Rating:
0/5 (0 votes)

Tabs too difficult? Try these video lessons and learn fast.
                Tuning: Standard (EADG)


G |--------------|--------------|--------------|--------------|
D |---------6----|---------6----|---------6----|--------------|
A |--------------|--------------|--------------|--------------| x2
E |--4--4-4---4--|--4--4-4---4--|--4--4-4---4--|--4-x--1-2-3--|
     S  S S P S     S  S S P S     S  S S P S     S S  S S S


G |--------------|--------------|--------------|
D |---------6----|---------6----|---------6----|
A |--------------|--------------|--------------| 
E |--4--4-4---4--|--4--4-4---4--|--4--4-4---4--|
     S  S S P S     S  S S P S     S  S S P S     


G |-------------------|-------------------|
D |-------------------|-------------------|
A |-------------------|-------------------| x3
E |--0-0-0-0-0-0-0-0--|--2-2-2-2-2-2-2-2--|


G |-------------------|-------------------|
D |-------------------|---------------4---|
A |-------------------|-------------------| 
E |--0-0-0-0-0-0-0-0--|--2-2-2-2-2-2------|


G |--------------|--------------|--------------|--------------|
D |--------------|--------------|--------------|--------------|
A |--------------|--------------|--------------|----------(2)-|
E |--4--4--4--4--|--4--4--4--4--|--4--4--4--4--|--4--4--4-----|
     S  S  S  S     S  S  S  S     S  S  S  S     S  S  S   


G |--------------|--------------|--------------|--------------|
D |--------------|--------------|--------------|--------------|
A |--2--2--2--1--|--------------|--------------|--------------|
E |--------------|--4--4--4--1--|--2--2--2--2--|--0--0--0--0--|


G |--------------|--------------|--------------|--------------|
D |--------------|--------------|--------------|--------------|
A |--2--2--2-2-1-|--------------|--------------|--------------|
E |--------------|--4--4--4--1--|--2--2--2--2--|--0--0--0--0--|
	     > > >


G |--------------|--------------|--------------|--------------|
D |--------------|--------------|--------------|--------------|
A |--6-6-6-6--6--|-6-6-6-6--6-7-|--6-6-6-6--6--|-6-6-6-6--6-7-| x4
E |--------------|--------------|--------------|--------------|



G |-----------------|-----------------|-----------------|-----------------|
D |-----------------|-----------------|-----------------|---------4-4-4-4-|
A |-----------------|-----------------|-4-4-4-4-4-4-4-6-|-7-7-7-7---------|
E |-4-4-4-4-4-4-4-6-|-7-7-7-7-7-7-7-7-|-----------------|-----------------|


G |-----------------|-----------------|-----------------|-----------------|
D |-----------------|-----------------|-----------------|---------4-4-4-4-|
A |-----------------|-----------------|-4-4-4-4-4-4-4-6-|-7-7-7-7---------|
E |-4-4-4-4-4-4-4-6-|-7-7-7-7-7-7-7-7-|-----------------|-----------------|


G |-----------------|-----------------|-----------------|-----------------|
D |-4---4-5-6-------|-----------------|-----------------|---------4-4-4-4-|
A |-----------------|-----------------|-4-4-4-4-4-4-4-6-|-7-7-7-7---------|
E |---4-------4-4-6-|-7-7-7-7-7-7-7-7-|-----------------|-----------------|


G |---------------|----------------------4------|
D |----------4----|---------6-4------4-6--------|
A |---------------|-------------6--6------------| x8
E |--2--2--2---2--|-4-4-4-4---------------------|


G |-------------------|-------------------|
D |-------------------|-------------------|
A |-------------------|-------------------| x3
E |--0-0-0-0-0-0-0-0--|--2-2-2-2-2-2-2-2--|


G |-------------------|-----------------------|
D |-------------------|--------2-----------4--|
A |-------------------|-----------------------| 
E |--0-0-0-0-0-0-0-0--|--0-0-0---0-0-2-2-2----|


G |--------------|--------------|--------------|--------------|
D |---------6----|---------6----|---------6----|--------------|
A |--------------|--------------|--------------|--------------|
E |--4--4-4---4--|--4--4-4---4--|--4--4-4---4--|--4-x--1-2-3--|
     S  S S P S     S  S S P S     S  S S P S     S S  S S S


G |--------------|--------------|--------------|--------------|
D |--------------|--------------|--------------|--------------|
A |--------------|--------------|--------------|----------(2)-|
E |--4--4--4--4--|--4--4--4--4--|--4--4--4--4--|--4--4--4-----|
     S  S  S  S     S  S  S  S     S  S  S  S     S  S  S   


G |--------------|--------------|--------------|--------------|
D |--------------|--------------|--------------|--------------|
A |--2--2--2--1--|--------------|--------------|--------------|
E |--------------|--4--4--4--1--|--2--2--2--2--|--0--0--0--0--|


G |--------------|--------------|--------------|--------------|
D |--------------|--------------|--------------|--------------|
A |--2--2--2-2-1-|--------------|--------------|--------------|
E |--------------|--4--4--4--1--|--2--2--2--2--|--0--0--0--0--|
	     > > >

G |-----------------|-----------------|-----------------|-----------------|
D |-----------------|-----------------|-----------------|---------4-4-4-4-|
A |-----------------|-----------------|-4-4-4-4-4-4-4-6-|-7-7-7-7---------|
E |-4-4-4-4-4-4-4-6-|-7-7-7-7-7-7-7-7-|-----------------|-----------------|


G |-----------------|-----------------|-----------------|-----------------|
D |-----------------|-----------------|-----------------|---------4-4-4-4-|
A |-----------------|-----------------|-4-4-4-4-4-4-4-6-|-7-7-7-7---------|
E |-4-4-4-4-4-4-4-6-|-7-7-7-7-7-7-7-7-|-----------------|-----------------|


G |-----------------|-----------------|-----------------|-----------------|
D |-4---4-5-6-------|-----------------|-----------------|---------4-4-4-4-|
A |-----------------|-----------------|-4-4-4-4-4-4-4-6-|-7-7-7-7---------|
E |---4-------4-4-6-|-7-6-7-6-7-6-7-7-|-----------------|-----------------|

G |-----------------|-----------------|-----------------|-----------------|
D |-4---4-5-6-------|-----------------|-----------------|---------4444--4-|
A |-----------------|-----------------|-4-4-4-4-4-4-4-6-|-777-77----------|
E |---4-------4-4-6-|-7-6-7-6-7-6-7-7-|-----------------|-----------------|
            
Tabs too difficult? Try these video lessons and learn fast.




comments powered by Disqus
↑ Back to top | Tablatures and chords are parodies/interpretations of the original songs. You may use it for private study, scholarship, research or language learning purposes only